  0
SECTION
  2
HEADER
  9
$ACADVER
  1
AC1009
  9
$INSBASE
 10
0
 20
0
 30
0
  9
$EXTMIN
 10
0
 20
0
  9
$EXTMAX
 10
420
 20
297
  9
$LIMMIN
 10
0
 20
0
  9
$LIMMAX
 10
420
 20
297
  9
$LTSCALE
 40
1
  0
ENDSEC
  0
SECTION
  2
TABLES
  0
TABLE
  2
LTYPE
 70
     9
  0
LTYPE
  2
CONTINUOUS
 70
    64
  3
実線
 72
    65
 73
     0
 40
0.0
  0
LTYPE
  2
DASHED1
 70
    64
  3
--  --  --  --  --  --  --  --  
 72
    65
 73
     2
 40
2.5
 49
1.25
 49
-1.25
  0
LTYPE
  2
DASHED2
 70
    64
  3
----    ----    ----    ----    
 72
    65
 73
     2
 40
5.0
 49
2.5
 49
-2.5
  0
LTYPE
  2
DASHED3
 70
    64
  3
------  ------  ------  ------  
 72
    65
 73
     2
 40
5.0
 49
3.75
 49
-1.25
  0
LTYPE
  2
CENTER1
 70
    64
  3
----- - ----- - ----- - ----- - 
 72
    65
 73
     4
 40
10.0
 49
6.25
 49
-1.25
 49
1.25
 49
-1.25
  0
LTYPE
  2
CENTER2
 70
    64
  3
----------  --  ----------  --  
 72
    65
 73
     4
 40
20.0
 49
12.5
 49
-2.5
 49
2.5
 49
-2.5
  0
LTYPE
  2
PHANTOM1
 70
    64
  3
--- - - --- - - --- - - --- - - 
 72
    65
 73
     6
 40
10.0
 49
3.25
 49
-1.25
 49
1.25
 49
-1.25
 49
1.25
 49
-1.25
  0
LTYPE
  2
PHANTOM2
 70
    64
  3
--------  -  -  --------  -  -  
 72
    65
 73
     6
 40
20.0
 49
10.0
 49
-2.5
 49
1.25
 49
-2.5
 49
1.25
 49
-2.5
  0
LTYPE
  2
DOT
 70
    64
  3
-   -   -   -   -   -   -   -   
 72
    65
 73
     2
 40
2.5
 49
0.625
 49
-1.875
  0
LTYPE
  2
DUMMY
 70
    64
  3
ダミー
 72
    65
 73
     0
 40
0.0
  0
LTYPE
  2
RAND1
 70
    64
  3
ランダム線1
 72
    65
 73
     4
 40
10.0
 49
1.0
 49
-2.0
 49
3.0
 49
-4.0
  0
LTYPE
  2
RAND2
 70
    64
  3
ランダム線2
 72
    65
 73
     4
 40
14.0
 49
2.0
 49
-3.0
 49
4.0
 49
-5.0
  0
LTYPE
  2
RAND3
 70
    64
  3
ランダム線3
 72
    65
 73
     4
 40
18.0
 49
3.0
 49
-4.0
 49
5.0
 49
-6.0
  0
LTYPE
  2
RAND4
 70
    64
  3
ランダム線4
 72
    65
 73
     4
 40
22.0
 49
4.0
 49
-5.0
 49
6.0
 49
-7.0
  0
LTYPE
  2
RAND5
 70
    64
  3
ランダム線5
 72
    65
 73
     4
 40
26.0
 49
5.0
 49
-6.0
 49
7.0
 49
-8.0
  0
LTYPE
  2
LONG1
 70
    64
  3
----------  --  ----------  --  
 72
    65
 73
     4
 40
40.0
 49
32.5
 49
-2.5
 49
2.5
 49
-2.5
  0
LTYPE
  2
LONG2
 70
    64
  3
--------  -  -  --------  -  -  
 72
    65
 73
     6
 40
40.0
 49
30.0
 49
-2.5
 49
1.25
 49
-2.5
 49
1.25
 49
-2.5
  0
LTYPE
  2
LONG3
 70
    64
  3
+++++++++++++++..+++++++++++++++
 72
    65
 73
     2
 40
40.0
 49
37.5
 49
-2.5
  0
LTYPE
  2
LONG4
 70
    64
  3
+++++++++++++++..+++++++++++++++
 72
    65
 73
     2
 40
80.0
 49
75.0
 49
-5.0
  0
LTYPE
  2
LONG5
 70
    64
  3
----------  --  ----------  --  
 72
    65
 73
     4
 40
60.0
 49
37.5
 49
-7.5
 49
7.5
 49
-7.5
  0
LTYPE
  2
dashed
 70
   64
  3
-------   -------------   ------
 72
   65
 73
    2
 40
7.5
 49
6
 49
-1.5
  0
LTYPE
  2
dashed_spaced
 70
   64
  3
----        --------        ----
 72
   65
 73
    2
 40
12
 49
6
 49
-6
  0
LTYPE
  2
long_dashed_dotted
 70
   64
  3
------------- --- --------------
 72
   65
 73
    4
 40
15.25
 49
12
 49
-1.5
 49
0.25
 49
-1.5
  0
LTYPE
  2
long_dashed_double-dotted
 70
   64
  3
----------- --- --- ------------
 72
   65
 73
    6
 40
17
 49
12
 49
-1.5
 49
0.25
 49
-1.5
 49
0.25
 49
-1.5
  0
LTYPE
  2
long_dashed_triplicate-dotted
 70
   64
  3
--------- --- --- --- ----------
 72
   65
 73
    8
 40
18.75
 49
12
 49
-1.5
 49
0.25
 49
-1.5
 49
0.25
 49
-1.5
 49
0.25
 49
-1.5
  0
LTYPE
  2
dotted
 70
   64
  3
   -       -       -       -    
 72
   65
 73
    2
 40
1.75
 49
0.25
 49
-1.5
  0
LTYPE
  2
chain
 70
   64
  3
-------------- -- --------------
 72
   65
 73
    4
 40
18.5
 49
12
 49
-1.5
 49
3.5
 49
-1.5
  0
LTYPE
  2
chain_double_dash
 70
   64
  3
------------ -- -- -------------
 72
   65
 73
    6
 40
23.5
 49
12
 49
-1.5
 49
3.5
 49
-1.5
 49
3.5
 49
-1.5
  0
LTYPE
  2
dashed_dotted
 70
   64
  3
-----------     -     ----------
 72
   65
 73
    4
 40
9.25
 49
6
 49
-1.5
 49
0.25
 49
-1.5
  0
LTYPE
  2
double-dashed_dotted
 70
   64
  3
------   -----------   -   -----
 72
   65
 73
    6
 40
16.75
 49
6
 49
-1.5
 49
6
 49
-1.5
 49
0.25
 49
-1.5
  0
LTYPE
  2
dashed_double-dotted
 70
   64
  3
---------    -    -    ---------
 72
   65
 73
    6
 40
11
 49
6
 49
-1.5
 49
0.25
 49
-1.5
 49
0.25
 49
-1.5
  0
LTYPE
  2
double-dashed_double-dotted
 70
   64
  3
-----   ---------   -   -   ----
 72
   65
 73
    8
 40
18.5
 49
6
 49
-1.5
 49
6
 49
-1.5
 49
0.25
 49
-1.5
 49
0.25
 49
-1.5
  0
LTYPE
  2
dashed_triplicate-dotted
 70
   64
  3
-------    -    -    -    ------
 72
   65
 73
    8
 40
12.75
 49
6
 49
-1.5
 49
0.25
 49
-1.5
 49
0.25
 49
-1.5
 49
0.25
 49
-1.5
  0
LTYPE
  2
double-dashed_triplicate-dotted
 70
   64
  3
-----  ---------  -  -  -  -----
 72
   65
 73
   10
 40
20.25
 49
6
 49
-1.5
 49
6
 49
-1.5
 49
0.25
 49
-1.5
 49
0.25
 49
-1.5
 49
0.25
 49
-1.5
  0
LTYPE
  2
undefined
 70
   64
  3
--------------------------------
 72
   65
 73
    0
 40
0
  0
ENDTAB
  0
TABLE
  2
STYLE
  5
3
100
AcDbSymbolTable
 70
     1
  0
STYLE
  5
10
100
AcDbSymbolTableRecord
100
AcDbTextStyleTableRecord
  2
STANDARD
 70
     0
 40
0.0
 41
1.0
 50
0.0
 71
     0
 42
0.2
  3
txt
  4
bigfont.shx
  0
STYLE
  5
26
100
AcDbSymbolTableRecord
100
AcDbTextStyleTableRecord
  2
TATEGAKI
 70
    68
 40
0.0
 41
1.0
 50
0.0
 71
     0
 42
1.0
  3
txt
  4
bigfont.shx
  0
ENDTAB
  0
TABLE
  2
LAYER
 70
   11
  0
LAYER
  2
_0-0_図面枠
 70
   64
 62
    7
  6
CONTINUOUS
  0
LAYER
  2
_0-f_
 70
   64
 62
    7
  6
CONTINUOUS
  0
LAYER
  2
_1-0_躯体
 70
   64
 62
    7
  6
CONTINUOUS
  0
LAYER
  2
_1-3_止水補助板
 70
   64
 62
    7
  6
CONTINUOUS
  0
LAYER
  2
_1-4_フレ__ム
 70
   64
 62
    7
  6
CONTINUOUS
  0
LAYER
  2
_1-5_ア__ム
 70
   64
 62
    7
  6
CONTINUOUS
  0
LAYER
  2
_1-6_ばね
 70
   64
 62
    7
  6
CONTINUOUS
  0
LAYER
  2
_1-7_カバ__
 70
   64
 62
    7
  6
CONTINUOUS
  0
LAYER
  2
_1-8_小物
 70
   64
 62
    7
  6
CONTINUOUS
  0
LAYER
  2
_1-f_寸法
 70
   64
 62
    7
  6
CONTINUOUS
  0
LAYER
  2
ADD_LINE
 70
   64
 62
    7
  6
CONTINUOUS
  0
ENDTAB
  0
ENDSEC
  0
SECTION
  2
BLOCKS
  0
BLOCK
  2
-000-
 70
   64
 10
0
 20
0
 30
0
  0
ARC
  8
_1-4_フレ__ム
  6
CONTINUOUS
 62
    4
 10
-84.83333325386684
 20
71.833333333333314
 40
0.5
 50
90
 51
180
  0
LINE
  8
_1-4_フレ__ム
  6
CONTINUOUS
 62
    4
 10
-63.33333325386684
 20
72.233333333333405
 11
-63.433333253866607
 21
72.333333333333314
  0
LINE
  8
_1-4_フレ__ム
  6
CONTINUOUS
 62
    4
 10
-63.233333253866931
 20
72.333333333333314
 11
-63.33333325386684
 21
72.233333333333405
  0
LINE
  8
_1-4_フレ__ム
  6
CONTINUOUS
 62
    4
 10
-85.333333253867153
 20
71.833333333333314
 11
-58.33333325386684
 21
71.833333333333314
  0
LINE
  8
_1-4_フレ__ム
  6
CONTINUOUS
 62
    4
 10
-58.333333333333655
 20
71.833333352333341
 11
-57.333333352333597
 21
72.833333333333286
  0
LINE
  8
_1-4_フレ__ム
  6
CONTINUOUS
 62
    4
 10
-57.333333352333597
 20
72.833333333333286
 11
-58.040440133520178
 21
72.833333333333286
  0
LINE
  8
_1-4_フレ__ム
  6
CONTINUOUS
 62
    4
 10
-58.540440133520178
 20
72.333333333333314
 11
-58.040440133520178
 21
72.833333333333286
  0
LINE
  8
_1-4_フレ__ム
  6
CONTINUOUS
 62
    4
 10
-58.540440133520178
 20
72.333333333333314
 11
-63.233333253866931
 21
72.333333333333314
  0
LINE
  8
_1-4_フレ__ム
  6
CONTINUOUS
 62
    4
 10
-74.112653052606845
 20
72.333333333333314
 11
-84.83333325386684
 21
72.333333333333314
  0
ARC
  8
_1-4_フレ__ム
  6
CONTINUOUS
 62
    4
 10
-74.112653052606845
 20
72.666666666666657
 40
0.3333333333333333
 50
270
 51
326.30993247401886
  0
ARC
  8
_1-4_フレ__ム
  6
CONTINUOUS
 62
    4
 10
-72.755863880281453
 20
73.5
 40
0.3333333333333333
 50
90
 51
146.30993247402972
  0
ARC
  8
_1-4_フレ__ム
  6
CONTINUOUS
 62
    4
 10
-72.577469294118828
 20
73.166666666666657
 40
0.1666666666666666
 50
90
 51
146.30993247403649
  0
LINE
  8
_1-4_フレ__ム
  6
CONTINUOUS
 62
    4
 10
-63.433333253866607
 20
72.333333333333314
 11
-73.021913738563342
 21
72.333333333333314
  0
ARC
  8
_1-4_フレ__ム
  6
CONTINUOUS
 62
    4
 10
-73.021913738563342
 20
72.5
 40
0.1666666666666666
 50
146.30993247403649
 51
270
  0
LINE
  8
_1-4_フレ__ム
  6
CONTINUOUS
 62
    4
 10
-73.835302954494182
 20
72.481766601258215
 11
-73.033213978394173
 21
73.684900065408357
  0
LINE
  8
_1-4_フレ__ム
  6
CONTINUOUS
 62
    4
 10
-73.160588787619645
 20
72.592450032704193
 11
-72.716144343175245
 21
73.259116699370821
  0
LINE
  8
_1-4_フレ__ム
  6
CONTINUOUS
 62
    4
 10
-71.666666587200325
 20
73.333333333333314
 11
-72.577469294118828
 21
73.333333333333314
  0
ARC
  8
_1-4_フレ__ム
  6
CONTINUOUS
 62
    4
 10
-71.666666587200325
 20
73.666666666666657
 40
0.3333333333333333
 50
270
 51
0
  0
LINE
  8
_1-4_フレ__ム
  6
CONTINUOUS
 62
    4
 10
-71.333333253866925
 20
73.666666666666657
 11
-71.333333253866925
 21
73.833333333333314
  0
LINE
  8
_1-4_フレ__ム
  6
CONTINUOUS
 62
    4
 10
-71.333333253866925
 20
73.833333333333314
 11
-72.755863880281453
 21
73.833333333333314
  0
LINE
  8
ADD_LINE
  6
DOT
 62
    4
 10
-63.33333325386684
 20
74
 11
-63.33333325386684
 21
70.166666666666657
  0
LINE
  8
_1-4_フレ__ム
  6
DASHED1
 62
    4
 10
-60.83333325386684
 20
72.333333333333314
 11
-60.83333325386684
 21
71.833333333333172
  0
LINE
  8
_1-4_フレ__ム
  6
DASHED1
 62
    4
 10
-65.83333325386684
 20
72.333333333333314
 11
-65.83333325386684
 21
71.833333333333172
  0
ENDBLK
  0
BLOCK
  2
-001-_1_
 70
   64
 10
0
 20
0
 30
0
  0
ARC
  8
_1-4_フレ__ム
  6
CONTINUOUS
 62
    4
 10
115.16666674613316
 20
71.833333333333286
 40
0.5
 50
90
 51
180
  0
LINE
  8
_1-4_フレ__ム
  6
CONTINUOUS
 62
    4
 10
136.66666674613316
 20
72.233333333333377
 11
136.56666674613336
 21
72.333333333333286
  0
LINE
  8
_1-4_フレ__ム
  6
CONTINUOUS
 62
    4
 10
136.76666674613307
 20
72.333333333333286
 11
136.66666674613316
 21
72.233333333333377
  0
LINE
  8
_1-4_フレ__ム
  6
CONTINUOUS
 62
    4
 10
114.66666674613282
 20
71.833333333333286
 11
141.66666674613316
 21
71.833333333333286
  0
LINE
  8
_1-4_フレ__ム
  6
CONTINUOUS
 62
    4
 10
141.66666666666634
 20
71.833333352333312
 11
142.66666664766637
 21
72.833333333333258
  0
LINE
  8
_1-4_フレ__ム
  6
CONTINUOUS
 62
    4
 10
142.66666664766637
 20
72.833333333333258
 11
141.95955986647982
 21
72.833333333333258
  0
LINE
  8
_1-4_フレ__ム
  6
CONTINUOUS
 62
    4
 10
141.45955986647982
 20
72.333333333333286
 11
141.95955986647982
 21
72.833333333333258
  0
LINE
  8
_1-4_フレ__ム
  6
CONTINUOUS
 62
    4
 10
141.45955986647982
 20
72.333333333333286
 11
136.76666674613307
 21
72.333333333333286
  0
LINE
  8
_1-4_フレ__ム
  6
CONTINUOUS
 62
    4
 10
125.88734694739316
 20
72.333333333333286
 11
115.16666674613316
 21
72.333333333333286
  0
ARC
  8
_1-4_フレ__ム
  6
CONTINUOUS
 62
    4
 10
125.88734694739316
 20
72.666666666666629
 40
0.3333333333333333
 50
270
 51
326.30993247401886
  0
ARC
  8
_1-4_フレ__ム
  6
CONTINUOUS
 62
    4
 10
127.24413611971852
 20
73.499999999999943
 40
0.3333333333333333
 50
90
 51
146.30993247402836
  0
ARC
  8
_1-4_フレ__ム
  6
CONTINUOUS
 62
    4
 10
127.42253070588117
 20
73.166666666666629
 40
0.1666666666666666
 50
90
 51
146.30993247404189
  0
LINE
  8
_1-4_フレ__ム
  6
CONTINUOUS
 62
    4
 10
136.56666674613336
 20
72.333333333333286
 11
126.97808626143666
 21
72.333333333333286
  0
ARC
  8
_1-4_フレ__ム
  6
CONTINUOUS
 62
    4
 10
126.97808626143666
 20
72.499999999999943
 40
0.1666666666666666
 50
146.30993247403106
 51
270
  0
LINE
  8
_1-4_フレ__ム
  6
CONTINUOUS
 62
    4
 10
126.16469704550582
 20
72.481766601258187
 11
126.9667860216058
 21
73.684900065408328
  0
LINE
  8
_1-4_フレ__ム
  6
CONTINUOUS
 62
    4
 10
126.83941121238036
 20
72.592450032704164
 11
127.28385565682476
 21
73.259116699370793
  0
LINE
  8
_1-4_フレ__ム
  6
CONTINUOUS
 62
    4
 10
128.33333341279967
 20
73.333333333333286
 11
127.42253070588117
 21
73.333333333333286
  0
ARC
  8
_1-4_フレ__ム
  6
CONTINUOUS
 62
    4
 10
128.33333341279967
 20
73.666666666666629
 40
0.3333333333333333
 50
270
 51
0
  0
LINE
  8
_1-4_フレ__ム
  6
CONTINUOUS
 62
    4
 10
128.66666674613305
 20
73.666666666666629
 11
128.66666674613305
 21
73.833333333333286
  0
LINE
  8
_1-4_フレ__ム
  6
CONTINUOUS
 62
    4
 10
128.66666674613305
 20
73.833333333333286
 11
127.24413611971852
 21
73.833333333333286
  0
LINE
  8
ADD_LINE
  6
DOT
 62
    4
 10
136.66666674613316
 20
73.999999999999943
 11
136.66666674613316
 21
70.166666666666629
  0
LINE
  8
_1-4_フレ__ム
  6
DASHED1
 62
    4
 10
139.16666674613316
 20
72.333333333333286
 11
139.16666674613316
 21
71.833333333333144
  0
LINE
  8
_1-4_フレ__ム
  6
DASHED1
 62
    4
 10
134.16666674613316
 20
72.333333333333286
 11
134.16666674613316
 21
71.833333333333144
  0
ENDBLK
  0
BLOCK
  2
-002-_2_
 70
   64
 10
0
 20
0
 30
0
  0
LINE
  8
_1-8_小物
  6
CONTINUOUS
 62
    4
 10
-134.8639083333334
 20
59.906724999999966
 11
-134.82901833333378
 21
59.24097166666661
  0
LINE
  8
_1-8_小物
  6
CONTINUOUS
 62
    4
 10
-134.91624500000032
 20
60.905354999999872
 11
-135.56455166666697
 21
60.537588333333275
  0
LINE
  8
_1-8_小物
  6
CONTINUOUS
 62
    4
 10
-135.56455166666697
 20
60.537588333333275
 11
-135.52966166666675
 21
59.871834999999919
  0
LINE
  8
_1-8_小物
  6
CONTINUOUS
 62
    4
 10
-135.52966166666675
 20
59.871834999999919
 11
-134.8639083333334
 21
59.906724999999966
  0
LINE
  8
_1-8_小物
  6
CONTINUOUS
 62
    4
 10
-134.95113500000022
 20
61.571108333333314
 11
-134.91624500000032
 21
60.905354999999872
  0
LINE
  8
_1-8_小物
  6
CONTINUOUS
 62
    4
 10
-135.00347166666685
 20
62.569736666666643
 11
-135.65177833333379
 21
62.201969999999761
  0
LINE
  8
_1-8_小物
  6
CONTINUOUS
 62
    4
 10
-135.65177833333379
 20
62.201969999999761
 11
-135.61688833333361
 21
61.536216666666633
  0
LINE
  8
_1-8_小物
  6
CONTINUOUS
 62
    4
 10
-135.61688833333361
 20
61.536216666666633
 11
-134.95113500000022
 21
61.571108333333314
  0
LINE
  8
_1-8_小物
  6
CONTINUOUS
 62
    4
 10
-135.03836166666707
 20
63.235490000000027
 11
-135.00347166666685
 21
62.569736666666643
  0
LINE
  8
_1-8_小物
  6
CONTINUOUS
 62
    4
 10
-135.09069833333339
 20
64.234119999999763
 11
-135.73900500000005
 21
63.866353333333336
  0
LINE
  8
_1-8_小物
  6
CONTINUOUS
 62
    4
 10
-135.73900500000005
 20
63.866353333333336
 11
-135.70411500000046
 21
63.200599999999952
  0
LINE
  8
_1-8_小物
  6
CONTINUOUS
 62
    4
 10
-135.70411500000046
 20
63.200599999999952
 11
-135.03836166666707
 21
63.235490000000027
  0
LINE
  8
_1-8_小物
  6
CONTINUOUS
 62
    4
 10
-135.12558833333361
 20
64.899873333333289
 11
-135.09069833333339
 21
64.234119999999763
  0
LINE
  8
_1-8_小物
  6
CONTINUOUS
 62
    4
 10
-135.17792500000024
 20
65.898503333333338
 11
-135.8262316666669
 21
65.530734999999964
  0
LINE
  8
_1-8_小物
  6
CONTINUOUS
 62
    4
 10
-135.8262316666669
 20
65.530734999999964
 11
-135.79134166666697
 21
64.864981666666608
  0
LINE
  8
_1-8_小物
  6
CONTINUOUS
 62
    4
 10
-135.79134166666697
 20
64.864981666666608
 11
-135.12558833333361
 21
64.899873333333289
  0
LINE
  8
_1-8_小物
  6
CONTINUOUS
 62
    4
 10
-135.21281500000018
 20
66.564254999999918
 11
-135.17792500000024
 21
65.898503333333338
  0
LINE
  8
_1-8_小物
  6
CONTINUOUS
 62
    4
 10
-135.91345833333372
 20
67.195118333333227
 11
-135.8785683333335
 21
66.529364999999871
  0
LINE
  8
_1-8_小物
  6
CONTINUOUS
 62
    4
 10
-135.8785683333335
 20
66.529364999999871
 11
-135.21281500000018
 21
66.564254999999918
  0
LINE
  8
_1-8_小物
  6
CONTINUOUS
 62
    4
 10
-135.33333333333363
 20
67.5
 11
-135.91345833333372
 21
67.195118333333227
  0
LINE
  8
_1-8_小物
  6
CONTINUOUS
 62
    4
 10
-138.46942500000023
 20
59.906724999999966
 11
-138.5043150000001
 21
59.24097166666661
  0
LINE
  8
_1-8_小物
  6
CONTINUOUS
 62
    4
 10
-138.41708833333357
 20
60.905354999999872
 11
-137.76878166666694
 21
60.537588333333275
  0
LINE
  8
_1-8_小物
  6
CONTINUOUS
 62
    4
 10
-137.76878166666694
 20
60.537588333333275
 11
-137.80367166666719
 21
59.871834999999919
  0
LINE
  8
_1-8_小物
  6
CONTINUOUS
 62
    4
 10
-137.80367166666719
 20
59.871834999999919
 11
-138.46942500000023
 21
59.906724999999966
  0
LINE
  8
_1-8_小物
  6
CONTINUOUS
 62
    4
 10
-138.38219833333341
 20
61.571108333333314
 11
-138.41708833333357
 21
60.905354999999872
  0
LINE
  8
_1-8_小物
  6
CONTINUOUS
 62
    4
 10
-138.32986166666703
 20
62.569736666666643
 11
-137.6815550000004
 21
62.201969999999761
  0
LINE
  8
_1-8_小物
  6
CONTINUOUS
 62
    4
 10
-137.6815550000004
 20
62.201969999999761
 11
-137.71644499999999
 21
61.536216666666633
  0
LINE
  8
_1-8_小物
  6
CONTINUOUS
 62
    4
 10
-137.71644499999999
 20
61.536216666666633
 11
-138.38219833333341
 21
61.571108333333314
  0
LINE
  8
_1-8_小物
  6
CONTINUOUS
 62
    4
 10
-138.29497166666712
 20
63.235490000000027
 11
-138.32986166666703
 21
62.569736666666643
  0
LINE
  8
_1-8_小物
  6
CONTINUOUS
 62
    4
 10
-138.24263500000049
 20
64.234119999999763
 11
-137.59432833333355
 21
63.866353333333336
  0
LINE
  8
_1-8_小物
  6
CONTINUOUS
 62
    4
 10
-137.59432833333355
 20
63.866353333333336
 11
-137.62921833333348
 21
63.200599999999952
  0
LINE
  8
_1-8_小物
  6
CONTINUOUS
 62
    4
 10
-137.62921833333348
 20
63.200599999999952
 11
-138.29497166666712
 21
63.235490000000027
  0
LINE
  8
_1-8_小物
  6
CONTINUOUS
 62
    4
 10
-138.20774500000033
 20
64.899873333333289
 11
-138.24263500000049
 21
64.234119999999763
  0
LINE
  8
_1-8_小物
  6
CONTINUOUS
 62
    4
 10
-138.15540833333336
 20
65.898503333333338
 11
-137.50710166666676
 21
65.530734999999964
  0
LINE
  8
_1-8_小物
  6
CONTINUOUS
 62
    4
 10
-137.50710166666676
 20
65.530734999999964
 11
-137.54199166666692
 21
64.864981666666608
  0
LINE
  8
_1-8_小物
  6
CONTINUOUS
 62
    4
 10
-137.54199166666692
 20
64.864981666666608
 11
-138.20774500000033
 21
64.899873333333289
  0
LINE
  8
_1-8_小物
  6
CONTINUOUS
 62
    4
 10
-138.12051833333379
 20
66.564254999999918
 11
-138.15540833333336
 21
65.898503333333338
  0
LINE
  8
_1-8_小物
  6
CONTINUOUS
 62
    4
 10
-137.41987500000022
 20
67.195118333333227
 11
-137.45476500000038
 21
66.529364999999871
  0
LINE
  8
_1-8_小物
  6
CONTINUOUS
 62
    4
 10
-137.45476500000038
 20
66.529364999999871
 11
-138.12051833333379
 21
66.564254999999918
  0
LINE
  8
_1-8_小物
  6
CONTINUOUS
 62
    4
 10
-136.68643500000022
 20
59.519768333333246
 11
-136.0418683333337
 21
60.091658333333271
  0
LINE
  8
_1-8_小物
  6
CONTINUOUS
 62
    4
 10
-137.28981500000037
 20
60.123146666666628
 11
-136.66666666666666
 21
59.499999999999829
  0
LINE
  8
_1-8_小物
  6
CONTINUOUS
 62
    4
 10
-137.99999999999997
 20
67.5
 11
-137.41987500000022
 21
67.195118333333227
  0
LINE
  8
_1-8_小物
  6
CONTINUOUS
 62
    4
 10
-135.12558833333361
 20
64.899873333333289
 11
-134.56046666666711
 21
66.452533333333122
  0
LINE
  8
_1-8_小物
  6
CONTINUOUS
 62
    4
 10
-135.4803150000001
 20
64.899873333333289
 11
-134.87369666666683
 21
66.566539999999947
  0
LINE
  8
_1-8_小物
  6
CONTINUOUS
 62
    4
 10
-138.20774500000033
 20
64.899873333333289
 11
-138.77286666666686
 21
66.452533333333122
  0
LINE
  8
_1-8_小物
  6
CONTINUOUS
 62
    4
 10
-137.85301833333386
 20
64.899873333333289
 11
-138.45963666666711
 21
66.566539999999947
  0
LINE
  8
_1-8_小物
  6
CONTINUOUS
 62
    4
 10
-135.99408500000024
 20
59.179913333333161
 11
-134.82901833333378
 21
59.24097166666661
  0
LINE
  8
_1-8_小物
  6
CONTINUOUS
 62
    4
 10
-134.82901833333378
 20
59.24097166666661
 11
-135.45988000000034
 21
58.540328333333321
  0
LINE
  8
_1-8_小物
  6
CONTINUOUS
 62
    4
 10
-135.45988000000034
 20
58.540328333333321
 11
-135.95919500000005
 21
58.514159999999862
  0
LINE
  8
_1-8_小物
  6
CONTINUOUS
 62
    4
 10
-135.95919500000005
 20
58.514159999999862
 11
-136.49999999999997
 21
68.833333333333172
  0
LINE
  8
_1-8_小物
  6
CONTINUOUS
 62
    4
 10
-135.33333333333363
 20
67.5
 11
-135.33333333333363
 21
68.833333333333172
  0
LINE
  8
_1-8_小物
  6
CONTINUOUS
 62
    4
 10
-137.33924833333364
 20
59.179913333333161
 11
-138.5043150000001
 21
59.24097166666661
  0
LINE
  8
_1-8_小物
  6
CONTINUOUS
 62
    4
 10
-138.5043150000001
 20
59.24097166666661
 11
-137.8734533333336
 21
58.540328333333321
  0
LINE
  8
_1-8_小物
  6
CONTINUOUS
 62
    4
 10
-137.8734533333336
 20
58.540328333333321
 11
-137.37413833333355
 21
58.514159999999862
  0
LINE
  8
_1-8_小物
  6
CONTINUOUS
 62
    4
 10
-137.37413833333355
 20
58.514159999999862
 11
-136.83333333333363
 21
68.833333333333172
  0
LINE
  8
_1-8_小物
  6
CONTINUOUS
 62
    4
 10
-137.99999999999997
 20
67.5
 11
-137.99999999999997
 21
68.833333333333172
  0
LINE
  8
_1-8_小物
  6
CONTINUOUS
 62
    4
 10
-138.77286666666686
 20
66.452533333333122
 11
-139.10365166666696
 21
68.720406666666804
  0
ARC
  8
_1-8_小物
  6
CONTINUOUS
 62
    4
 10
-138.9717150000003
 20
68.739651666666589
 40
0.1333333333333333
 50
98.130101999952089
 51
188.29846600000073
  0
LINE
  8
_1-8_小物
  6
CONTINUOUS
 62
    4
 10
-138.99057166666714
 20
68.871644999999944
 11
-138.92496333333355
 21
68.88101666666671
  0
ARC
  8
_1-8_小物
  6
CONTINUOUS
 62
    4
 10
-138.90610666666663
 20
68.749023333333298
 40
0.1333333333333333
 50
8.1301020000159863
 51
98.13010200021462
  0
LINE
  8
_1-8_小物
  6
CONTINUOUS
 62
    4
 10
-138.77411333333356
 20
68.767879999999877
 11
-138.45963666666711
 21
66.566539999999947
  0
LINE
  8
_1-8_小物
  6
CONTINUOUS
 62
    4
 10
-134.56046666666711
 20
66.452533333333122
 11
-134.22968166666698
 21
68.720406666666804
  0
ARC
  8
_1-8_小物
  6
CONTINUOUS
 62
    4
 10
-134.36161833333364
 20
68.739651666666589
 40
0.1333333333333333
 50
351.70153399996479
 51
81.869898000035846
  0
LINE
  8
_1-8_小物
  6
CONTINUOUS
 62
    4
 10
-134.34276333333369
 20
68.871644999999944
 11
-134.40837000000039
 21
68.88101666666671
  0
ARC
  8
_1-8_小物
  6
CONTINUOUS
 62
    4
 10
-134.42722666666666
 20
68.749023333333298
 40
0.1333333333333333
 50
81.869898000046192
 51
171.86989799998403
  0
LINE
  8
_1-8_小物
  6
CONTINUOUS
 62
    4
 10
-134.55922000000038
 20
68.767879999999877
 11
-134.87369666666683
 21
66.566539999999947
  0
LINE
  8
_1-8_小物
  6
CONTINUOUS
 62
    4
 10
-134.56046666666711
 20
66.452533333333122
 11
-134.22968166666698
 21
68.720406666666804
  0
ARC
  8
_1-8_小物
  6
CONTINUOUS
 62
    4
 10
-134.36161833333364
 20
68.739651666666589
 40
0.1333333333333333
 50
351.70153399996479
 51
81.869898000035846
  0
LINE
  8
_1-8_小物
  6
CONTINUOUS
 62
    4
 10
-134.34276333333369
 20
68.871644999999944
 11
-134.40837000000039
 21
68.88101666666671
  0
ARC
  8
_1-8_小物
  6
CONTINUOUS
 62
    4
 10
-134.42722666666666
 20
68.749023333333298
 40
0.1333333333333333
 50
81.869898000046192
 51
171.86989799998403
  0
LINE
  8
_1-8_小物
  6
CONTINUOUS
 62
    4
 10
-134.55922000000038
 20
68.767879999999877
 11
-134.87369666666683
 21
66.566539999999947
  0
LINE
  8
_1-8_小物
  6
CONTINUOUS
 62
    4
 10
-134.99999999999997
 20
71.5
 11
-135.33333333333363
 21
69.833333333333314
  0
LINE
  8
_1-8_小物
  6
CONTINUOUS
 62
    4
 10
-135.33333333333363
 20
71.5
 11
-135.33333333333363
 21
68.833333333333172
  0
LINE
  8
_1-8_小物
  6
CONTINUOUS
 62
    4
 10
-136.49999999999997
 20
68.833333333333172
 11
-136.66666666666666
 21
68.833333333333172
  0
LINE
  8
_1-8_小物
  6
CONTINUOUS
 62
    4
 10
-136.66666666666666
 20
69.833333333333314
 11
-136.66666666666666
 21
71.5
  0
LINE
  8
_1-8_小物
  6
CONTINUOUS
 62
    4
 10
-136.33333333333363
 20
71.5
 11
-136.66666666666666
 21
69.833333333333314
  0
LINE
  8
_1-8_小物
  6
CONTINUOUS
 62
    4
 10
-137.00000000000028
 20
71.5
 11
-136.66666666666666
 21
69.833333333333314
  0
LINE
  8
_1-8_小物
  6
CONTINUOUS
 62
    4
 10
-138.33333333333331
 20
71.5
 11
-137.99999999999997
 21
69.833333333333314
  0
LINE
  8
_1-8_小物
  6
CONTINUOUS
 62
    4
 10
-137.99999999999997
 20
71.5
 11
-137.99999999999997
 21
68.833333333333172
  0
LINE
  8
_1-8_小物
  6
CONTINUOUS
 62
    4
 10
-136.83333333333363
 20
68.833333333333172
 11
-136.66666666666666
 21
68.833333333333172
  0
LINE
  8
_1-8_小物
  6
CONTINUOUS
 62
    4
 10
-134.99999999999997
 20
71.5
 11
-138.33333333333331
 21
71.5
  0
ENDBLK
  0
BLOCK
  2
-003-_3_
 70
   64
 10
0
 20
0
 30
0
  0
LINE
  8
_1-8_小物
  6
CONTINUOUS
 62
    4
 10
-61.530575000000113
 20
59.906724999999966
 11
-61.495685000000492
 21
59.24097166666661
  0
LINE
  8
_1-8_小物
  6
CONTINUOUS
 62
    4
 10
-61.58291166666703
 20
60.905354999999872
 11
-62.231218333333686
 21
60.537588333333275
  0
LINE
  8
_1-8_小物
  6
CONTINUOUS
 62
    4
 10
-62.231218333333686
 20
60.537588333333275
 11
-62.19632833333344
 21
59.871834999999919
  0
LINE
  8
_1-8_小物
  6
CONTINUOUS
 62
    4
 10
-62.19632833333344
 20
59.871834999999919
 11
-61.530575000000113
 21
59.906724999999966
  0
LINE
  8
_1-8_小物
  6
CONTINUOUS
 62
    4
 10
-61.617801666666935
 20
61.571108333333314
 11
-61.58291166666703
 21
60.905354999999872
  0
LINE
  8
_1-8_小物
  6
CONTINUOUS
 62
    4
 10
-61.670138333333568
 20
62.569736666666643
 11
-62.318445000000509
 21
62.201969999999761
  0
LINE
  8
_1-8_小物
  6
CONTINUOUS
 62
    4
 10
-62.318445000000509
 20
62.201969999999761
 11
-62.28355500000032
 21
61.536216666666633
  0
LINE
  8
_1-8_小物
  6
CONTINUOUS
 62
    4
 10
-62.28355500000032
 20
61.536216666666633
 11
-61.617801666666935
 21
61.571108333333314
  0
LINE
  8
_1-8_小物
  6
CONTINUOUS
 62
    4
 10
-61.705028333333757
 20
63.235490000000027
 11
-61.670138333333568
 21
62.569736666666643
  0
LINE
  8
_1-8_小物
  6
CONTINUOUS
 62
    4
 10
-61.757365000000107
 20
64.234119999999763
 11
-62.405671666666763
 21
63.866353333333336
  0
LINE
  8
_1-8_小物
  6
CONTINUOUS
 62
    4
 10
-62.405671666666763
 20
63.866353333333336
 11
-62.370781666667142
 21
63.200599999999952
  0
LINE
  8
_1-8_小物
  6
CONTINUOUS
 62
    4
 10
-62.370781666667142
 20
63.200599999999952
 11
-61.705028333333757
 21
63.235490000000027
  0
LINE
  8
_1-8_小物
  6
CONTINUOUS
 62
    4
 10
-61.792255000000296
 20
64.899873333333289
 11
-61.757365000000107
 21
64.234119999999763
  0
LINE
  8
_1-8_小物
  6
CONTINUOUS
 62
    4
 10
-61.844591666666929
 20
65.898503333333338
 11
-62.492898333333585
 21
65.530734999999964
  0
LINE
  8
_1-8_小物
  6
CONTINUOUS
 62
    4
 10
-62.492898333333585
 20
65.530734999999964
 11
-62.45800833333368
 21
64.864981666666608
  0
LINE
  8
_1-8_小物
  6
CONTINUOUS
 62
    4
 10
-62.45800833333368
 20
64.864981666666608
 11
-61.792255000000296
 21
64.899873333333289
  0
LINE
  8
_1-8_小物
  6
CONTINUOUS
 62
    4
 10
-61.879481666666891
 20
66.564254999999918
 11
-61.844591666666929
 21
65.898503333333338
  0
LINE
  8
_1-8_小物
  6
CONTINUOUS
 62
    4
 10
-62.580125000000407
 20
67.195118333333227
 11
-62.545235000000218
 21
66.529364999999871
  0
LINE
  8
_1-8_小物
  6
CONTINUOUS
 62
    4
 10
-62.545235000000218
 20
66.529364999999871
 11
-61.879481666666891
 21
66.564254999999918
  0
LINE
  8
_1-8_小物
  6
CONTINUOUS
 62
    4
 10
-62.000000000000341
 20
67.5
 11
-62.580125000000407
 21
67.195118333333227
  0
LINE
  8
_1-8_小物
  6
CONTINUOUS
 62
    4
 10
-65.136091666666914
 20
59.906724999999966
 11
-65.170981666666819
 21
59.24097166666661
  0
LINE
  8
_1-8_小物
  6
CONTINUOUS
 62
    4
 10
-65.083755000000281
 20
60.905354999999872
 11
-64.435448333333625
 21
60.537588333333275
  0
LINE
  8
_1-8_小物
  6
CONTINUOUS
 62
    4
 10
-64.435448333333625
 20
60.537588333333275
 11
-64.470338333333871
 21
59.871834999999919
  0
LINE
  8
_1-8_小物
  6
CONTINUOUS
 62
    4
 10
-64.470338333333871
 20
59.871834999999919
 11
-65.136091666666914
 21
59.906724999999966
  0
LINE
  8
_1-8_小物
  6
CONTINUOUS
 62
    4
 10
-65.048865000000092
 20
61.571108333333314
 11
-65.083755000000281
 21
60.905354999999872
  0
LINE
  8
_1-8_小物
  6
CONTINUOUS
 62
    4
 10
-64.996528333333742
 20
62.569736666666643
 11
-64.348221666667087
 21
62.201969999999761
  0
LINE
  8
_1-8_小物
  6
CONTINUOUS
 62
    4
 10
-64.348221666667087
 20
62.201969999999761
 11
-64.383111666666707
 21
61.536216666666633
  0
LINE
  8
_1-8_小物
  6
CONTINUOUS
 62
    4
 10
-64.383111666666707
 20
61.536216666666633
 11
-65.048865000000092
 21
61.571108333333314
  0
LINE
  8
_1-8_小物
  6
CONTINUOUS
 62
    4
 10
-64.961638333333838
 20
63.235490000000027
 11
-64.996528333333742
 21
62.569736666666643
  0
LINE
  8
_1-8_小物
  6
CONTINUOUS
 62
    4
 10
-64.909301666667204
 20
64.234119999999763
 11
-64.260995000000264
 21
63.866353333333336
  0
LINE
  8
_1-8_小物
  6
CONTINUOUS
 62
    4
 10
-64.260995000000264
 20
63.866353333333336
 11
-64.295885000000169
 21
63.200599999999952
  0
LINE
  8
_1-8_小物
  6
CONTINUOUS
 62
    4
 10
-64.295885000000169
 20
63.200599999999952
 11
-64.961638333333838
 21
63.235490000000027
  0
LINE
  8
_1-8_小物
  6
CONTINUOUS
 62
    4
 10
-64.874411666667015
 20
64.899873333333289
 11
-64.909301666667204
 21
64.234119999999763
  0
LINE
  8
_1-8_小物
  6
CONTINUOUS
 62
    4
 10
-64.822075000000041
 20
65.898503333333338
 11
-64.173768333333442
 21
65.530734999999964
  0
LINE
  8
_1-8_小物
  6
CONTINUOUS
 62
    4
 10
-64.173768333333442
 20
65.530734999999964
 11
-64.208658333333631
 21
64.864981666666608
  0
LINE
  8
_1-8_小物
  6
CONTINUOUS
 62
    4
 10
-64.208658333333631
 20
64.864981666666608
 11
-64.874411666667015
 21
64.899873333333289
  0
LINE
  8
_1-8_小物
  6
CONTINUOUS
 62
    4
 10
-64.787185000000477
 20
66.564254999999918
 11
-64.822075000000041
 21
65.898503333333338
  0
LINE
  8
_1-8_小物
  6
CONTINUOUS
 62
    4
 10
-64.086541666666903
 20
67.195118333333227
 11
-64.121431666667092
 21
66.529364999999871
  0
LINE
  8
_1-8_小物
  6
CONTINUOUS
 62
    4
 10
-64.121431666667092
 20
66.529364999999871
 11
-64.787185000000477
 21
66.564254999999918
  0
LINE
  8
_1-8_小物
  6
CONTINUOUS
 62
    4
 10
-63.35310166666693
 20
59.519768333333246
 11
-62.708535000000381
 21
60.091658333333271
  0
LINE
  8
_1-8_小物
  6
CONTINUOUS
 62
    4
 10
-63.956481666667059
 20
60.123146666666628
 11
-63.333333333333371
 21
59.499999999999829
  0
LINE
  8
_1-8_小物
  6
CONTINUOUS
 62
    4
 10
-64.666666666666686
 20
67.5
 11
-64.086541666666903
 21
67.195118333333227
  0
LINE
  8
_1-8_小物
  6
CONTINUOUS
 62
    4
 10
-61.792255000000296
 20
64.899873333333289
 11
-61.227133333333825
 21
66.452533333333122
  0
LINE
  8
_1-8_小物
  6
CONTINUOUS
 62
    4
 10
-62.146981666666818
 20
64.899873333333289
 11
-61.540363333333516
 21
66.566539999999947
  0
LINE
  8
_1-8_小物
  6
CONTINUOUS
 62
    4
 10
-64.874411666667015
 20
64.899873333333289
 11
-65.439533333333543
 21
66.452533333333122
  0
LINE
  8
_1-8_小物
  6
CONTINUOUS
 62
    4
 10
-64.51968500000055
 20
64.899873333333289
 11
-65.126303333333794
 21
66.566539999999947
  0
LINE
  8
_1-8_小物
  6
CONTINUOUS
 62
    4
 10
-62.660751666666954
 20
59.179913333333161
 11
-61.495685000000492
 21
59.24097166666661
  0
LINE
  8
_1-8_小物
  6
CONTINUOUS
 62
    4
 10
-61.495685000000492
 20
59.24097166666661
 11
-62.126546666667025
 21
58.540328333333321
  0
LINE
  8
_1-8_小物
  6
CONTINUOUS
 62
    4
 10
-62.126546666667025
 20
58.540328333333321
 11
-62.625861666666765
 21
58.514159999999862
  0
LINE
  8
_1-8_小物
  6
CONTINUOUS
 62
    4
 10
-62.625861666666765
 20
58.514159999999862
 11
-63.166666666666686
 21
68.833333333333172
  0
LINE
  8
_1-8_小物
  6
CONTINUOUS
 62
    4
 10
-62.000000000000341
 20
67.5
 11
-62.000000000000341
 21
68.833333333333172
  0
LINE
  8
_1-8_小物
  6
CONTINUOUS
 62
    4
 10
-64.005915000000357
 20
59.179913333333161
 11
-65.170981666666819
 21
59.24097166666661
  0
LINE
  8
_1-8_小物
  6
CONTINUOUS
 62
    4
 10
-65.170981666666819
 20
59.24097166666661
 11
-64.540120000000286
 21
58.540328333333321
  0
LINE
  8
_1-8_小物
  6
CONTINUOUS
 62
    4
 10
-64.540120000000286
 20
58.540328333333321
 11
-64.040805000000262
 21
58.514159999999862
  0
LINE
  8
_1-8_小物
  6
CONTINUOUS
 62
    4
 10
-64.040805000000262
 20
58.514159999999862
 11
-63.500000000000341
 21
68.833333333333172
  0
LINE
  8
_1-8_小物
  6
CONTINUOUS
 62
    4
 10
-64.666666666666686
 20
67.5
 11
-64.666666666666686
 21
68.833333333333172
  0
LINE
  8
_1-8_小物
  6
CONTINUOUS
 62
    4
 10
-65.439533333333543
 20
66.452533333333122
 11
-65.770318333333648
 21
68.720406666666804
  0
ARC
  8
_1-8_小物
  6
CONTINUOUS
 62
    4
 10
-65.638381666666987
 20
68.739651666666589
 40
0.1333333333333333
 50
98.130101999964168
 51
188.29846599999897
  0
LINE
  8
_1-8_小物
  6
CONTINUOUS
 62
    4
 10
-65.657238333333851
 20
68.871644999999944
 11
-65.591630000000237
 21
68.88101666666671
  0
ARC
  8
_1-8_小物
  6
CONTINUOUS
 62
    4
 10
-65.572773333333316
 20
68.749023333333298
 40
0.1333333333333333
 50
8.1301020000159863
 51
98.130102000226714
  0
LINE
  8
_1-8_小物
  6
CONTINUOUS
 62
    4
 10
-65.440780000000245
 20
68.767879999999877
 11
-65.126303333333794
 21
66.566539999999947
  0
LINE
  8
_1-8_小物
  6
CONTINUOUS
 62
    4
 10
-61.227133333333825
 20
66.452533333333122
 11
-60.896348333333663
 21
68.720406666666804
  0
ARC
  8
_1-8_小物
  6
CONTINUOUS
 62
    4
 10
-61.028285000000324
 20
68.739651666666589
 40
0.1333333333333333
 50
351.70153399996303
 51
81.869898000047954
  0
LINE
  8
_1-8_小物
  6
CONTINUOUS
 62
    4
 10
-61.009430000000407
 20
68.871644999999944
 11
-61.075036666667074
 21
68.88101666666671
  0
ARC
  8
_1-8_小物
  6
CONTINUOUS
 62
    4
 10
-61.093893333333369
 20
68.749023333333298
 40
0.1333333333333333
 50
81.869898000046192
 51
171.86989799998403
  0
LINE
  8
_1-8_小物
  6
CONTINUOUS
 62
    4
 10
-61.225886666667066
 20
68.767879999999877
 11
-61.540363333333516
 21
66.566539999999947
  0
LINE
  8
_1-8_小物
  6
CONTINUOUS
 62
    4
 10
-61.227133333333825
 20
66.452533333333122
 11
-60.896348333333663
 21
68.720406666666804
  0
ARC
  8
_1-8_小物
  6
CONTINUOUS
 62
    4
 10
-61.028285000000324
 20
68.739651666666589
 40
0.1333333333333333
 50
351.70153399996303
 51
81.869898000047954
  0
LINE
  8
_1-8_小物
  6
CONTINUOUS
 62
    4
 10
-61.009430000000407
 20
68.871644999999944
 11
-61.075036666667074
 21
68.88101666666671
  0
ARC
  8
_1-8_小物
  6
CONTINUOUS
 62
    4
 10
-61.093893333333369
 20
68.749023333333298
 40
0.1333333333333333
 50
81.869898000046192
 51
171.86989799998403
  0
LINE
  8
_1-8_小物
  6
CONTINUOUS
 62
    4
 10
-61.225886666667066
 20
68.767879999999877
 11
-61.540363333333516
 21
66.566539999999947
  0
LINE
  8
_1-8_小物
  6
CONTINUOUS
 62
    4
 10
-61.666666666666686
 20
71.5
 11
-62.000000000000341
 21
69.833333333333314
  0
LINE
  8
_1-8_小物
  6
CONTINUOUS
 62
    4
 10
-62.000000000000341
 20
71.5
 11
-62.000000000000341
 21
68.833333333333172
  0
LINE
  8
_1-8_小物
  6
CONTINUOUS
 62
    4
 10
-63.166666666666686
 20
68.833333333333172
 11
-63.333333333333371
 21
68.833333333333172
  0
LINE
  8
_1-8_小物
  6
CONTINUOUS
 62
    4
 10
-63.333333333333371
 20
69.833333333333314
 11
-63.333333333333371
 21
71.5
  0
LINE
  8
_1-8_小物
  6
CONTINUOUS
 62
    4
 10
-63.000000000000341
 20
71.5
 11
-63.333333333333371
 21
69.833333333333314
  0
LINE
  8
_1-8_小物
  6
CONTINUOUS
 62
    4
 10
-63.66666666666697
 20
71.5
 11
-63.333333333333371
 21
69.833333333333314
  0
LINE
  8
_1-8_小物
  6
CONTINUOUS
 62
    4
 10
-65
 20
71.5
 11
-64.666666666666686
 21
69.833333333333314
  0
LINE
  8
_1-8_小物
  6
CONTINUOUS
 62
    4
 10
-64.666666666666686
 20
71.5
 11
-64.666666666666686
 21
68.833333333333172
  0
LINE
  8
_1-8_小物
  6
CONTINUOUS
 62
    4
 10
-63.500000000000341
 20
68.833333333333172
 11
-63.333333333333371
 21
68.833333333333172
  0
LINE
  8
_1-8_小物
  6
CONTINUOUS
 62
    4
 10
-61.666666666666686
 20
71.5
 11
-65
 21
71.5
  0
ENDBLK
  0
BLOCK
  2
-004-_4_
 70
   64
 10
0
 20
0
 30
0
  0
LINE
  8
_1-8_小物
  6
CONTINUOUS
 62
    4
 10
138.46942499999989
 20
59.906724999999938
 11
138.50431499999951
 21
59.240971666666553
  0
LINE
  8
_1-8_小物
  6
CONTINUOUS
 62
    4
 10
138.41708833333297
 20
60.905354999999815
 11
137.76878166666631
 21
60.537588333333247
  0
LINE
  8
_1-8_小物
  6
CONTINUOUS
 62
    4
 10
137.76878166666631
 20
60.537588333333247
 11
137.80367166666656
 21
59.871834999999862
  0
LINE
  8
_1-8_小物
  6
CONTINUOUS
 62
    4
 10
137.80367166666656
 20
59.871834999999862
 11
138.46942499999989
 21
59.906724999999938
  0
LINE
  8
_1-8_小物
  6
CONTINUOUS
 62
    4
 10
138.38219833333306
 20
61.571108333333257
 11
138.41708833333297
 21
60.905354999999815
  0
LINE
  8
_1-8_小物
  6
CONTINUOUS
 62
    4
 10
138.32986166666643
 20
62.569736666666614
 11
137.68155499999949
 21
62.201969999999733
  0
LINE
  8
_1-8_小物
  6
CONTINUOUS
 62
    4
 10
137.68155499999949
 20
62.201969999999733
 11
137.71644499999968
 21
61.536216666666576
  0
LINE
  8
_1-8_小物
  6
CONTINUOUS
 62
    4
 10
137.71644499999968
 20
61.536216666666576
 11
138.38219833333306
 21
61.571108333333257
  0
LINE
  8
_1-8_小物
  6
CONTINUOUS
 62
    4
 10
138.29497166666624
 20
63.23548999999997
 11
138.32986166666643
 21
62.569736666666614
  0
LINE
  8
_1-8_小物
  6
CONTINUOUS
 62
    4
 10
138.24263499999989
 20
64.234119999999734
 11
137.59432833333324
 21
63.866353333333279
  0
LINE
  8
_1-8_小物
  6
CONTINUOUS
 62
    4
 10
137.59432833333324
 20
63.866353333333279
 11
137.62921833333286
 21
63.200599999999923
  0
LINE
  8
_1-8_小物
  6
CONTINUOUS
 62
    4
 10
137.62921833333286
 20
63.200599999999923
 11
138.29497166666624
 21
63.23548999999997
  0
LINE
  8
_1-8_小物
  6
CONTINUOUS
 62
    4
 10
138.2077449999997
 20
64.899873333333232
 11
138.24263499999989
 21
64.234119999999734
  0
LINE
  8
_1-8_小物
  6
CONTINUOUS
 62
    4
 10
138.15540833333307
 20
65.898503333333281
 11
137.50710166666641
 21
65.530734999999936
  0
LINE
  8
_1-8_小物
  6
CONTINUOUS
 62
    4
 10
137.50710166666641
 20
65.530734999999936
 11
137.54199166666632
 21
64.864981666666552
  0
LINE
  8
_1-8_小物
  6
CONTINUOUS
 62
    4
 10
137.54199166666632
 20
64.864981666666552
 11
138.2077449999997
 21
64.899873333333232
  0
LINE
  8
_1-8_小物
  6
CONTINUOUS
 62
    4
 10
138.12051833333317
 20
66.564254999999889
 11
138.15540833333307
 21
65.898503333333281
  0
LINE
  8
_1-8_小物
  6
CONTINUOUS
 62
    4
 10
137.41987499999959
 20
67.195118333333198
 11
137.45476499999978
 21
66.529364999999814
  0
LINE
  8
_1-8_小物
  6
CONTINUOUS
 62
    4
 10
137.45476499999978
 20
66.529364999999814
 11
138.12051833333317
 21
66.564254999999889
  0
LINE
  8
_1-8_小物
  6
CONTINUOUS
 62
    4
 10
137.99999999999966
 20
67.499999999999943
 11
137.41987499999959
 21
67.195118333333198
  0
LINE
  8
_1-8_小物
  6
CONTINUOUS
 62
    4
 10
134.86390833333309
 20
59.906724999999938
 11
134.82901833333318
 21
59.240971666666553
  0
LINE
  8
_1-8_小物
  6
CONTINUOUS
 62
    4
 10
134.91624499999972
 20
60.905354999999815
 11
135.56455166666638
 21
60.537588333333247
  0
LINE
  8
_1-8_小物
  6
CONTINUOUS
 62
    4
 10
135.56455166666638
 20
60.537588333333247
 11
135.52966166666613
 21
59.871834999999862
  0
LINE
  8
_1-8_小物
  6
CONTINUOUS
 62
    4
 10
135.52966166666613
 20
59.871834999999862
 11
134.86390833333309
 21
59.906724999999938
  0
LINE
  8
_1-8_小物
  6
CONTINUOUS
 62
    4
 10
134.95113499999991
 20
61.571108333333257
 11
134.91624499999972
 21
60.905354999999815
  0
LINE
  8
_1-8_小物
  6
CONTINUOUS
 62
    4
 10
135.00347166666626
 20
62.569736666666614
 11
135.65177833333291
 21
62.201969999999733
  0
LINE
  8
_1-8_小物
  6
CONTINUOUS
 62
    4
 10
135.65177833333291
 20
62.201969999999733
 11
135.61688833333329
 21
61.536216666666576
  0
LINE
  8
_1-8_小物
  6
CONTINUOUS
 62
    4
 10
135.61688833333329
 20
61.536216666666576
 11
134.95113499999991
 21
61.571108333333257
  0
LINE
  8
_1-8_小物
  6
CONTINUOUS
 62
    4
 10
135.03836166666616
 20
63.23548999999997
 11
135.00347166666626
 21
62.569736666666614
  0
LINE
  8
_1-8_小物
  6
CONTINUOUS
 62
    4
 10
135.0906983333328
 20
64.234119999999734
 11
135.73900499999974
 21
63.866353333333279
  0
LINE
  8
_1-8_小物
  6
CONTINUOUS
 62
    4
 10
135.73900499999974
 20
63.866353333333279
 11
135.70411499999983
 21
63.200599999999923
  0
LINE
  8
_1-8_小物
  6
CONTINUOUS
 62
    4
 10
135.70411499999983
 20
63.200599999999923
 11
135.03836166666616
 21
63.23548999999997
  0
LINE
  8
_1-8_小物
  6
CONTINUOUS
 62
    4
 10
135.12558833333298
 20
64.899873333333232
 11
135.0906983333328
 21
64.234119999999734
  0
LINE
  8
_1-8_小物
  6
CONTINUOUS
 62
    4
 10
135.17792499999996
 20
65.898503333333281
 11
135.82623166666656
 21
65.530734999999936
  0
LINE
  8
_1-8_小物
  6
CONTINUOUS
 62
    4
 10
135.82623166666656
 20
65.530734999999936
 11
135.79134166666637
 21
64.864981666666552
  0
LINE
  8
_1-8_小物
  6
CONTINUOUS
 62
    4
 10
135.79134166666637
 20
64.864981666666552
 11
135.12558833333298
 21
64.899873333333232
  0
LINE
  8
_1-8_小物
  6
CONTINUOUS
 62
    4
 10
135.21281499999952
 20
66.564254999999889
 11
135.17792499999996
 21
65.898503333333281
  0
LINE
  8
_1-8_小物
  6
CONTINUOUS
 62
    4
 10
135.9134583333331
 20
67.195118333333198
 11
135.87856833333291
 21
66.529364999999814
  0
LINE
  8
_1-8_小物
  6
CONTINUOUS
 62
    4
 10
135.87856833333291
 20
66.529364999999814
 11
135.21281499999952
 21
66.564254999999889
  0
LINE
  8
_1-8_小物
  6
CONTINUOUS
 62
    4
 10
136.64689833333307
 20
59.519768333333218
 11
137.29146499999962
 21
60.091658333333214
  0
LINE
  8
_1-8_小物
  6
CONTINUOUS
 62
    4
 10
136.04351833333294
 20
60.123146666666599
 11
136.66666666666663
 21
59.499999999999801
  0
LINE
  8
_1-8_小物
  6
CONTINUOUS
 62
    4
 10
135.33333333333331
 20
67.499999999999943
 11
135.9134583333331
 21
67.195118333333198
  0
LINE
  8
_1-8_小物
  6
CONTINUOUS
 62
    4
 10
138.2077449999997
 20
64.899873333333232
 11
138.77286666666623
 21
66.452533333333065
  0
LINE
  8
_1-8_小物
  6
CONTINUOUS
 62
    4
 10
137.85301833333324
 20
64.899873333333232
 11
138.45963666666648
 21
66.566539999999918
  0
LINE
  8
_1-8_小物
  6
CONTINUOUS
 62
    4
 10
135.12558833333298
 20
64.899873333333232
 11
134.56046666666646
 21
66.452533333333065
  0
LINE
  8
_1-8_小物
  6
CONTINUOUS
 62
    4
 10
135.48031499999945
 20
64.899873333333232
 11
134.87369666666621
 21
66.566539999999918
  0
LINE
  8
_1-8_小物
  6
CONTINUOUS
 62
    4
 10
137.33924833333305
 20
59.179913333333104
 11
138.50431499999951
 21
59.240971666666553
  0
LINE
  8
_1-8_小物
  6
CONTINUOUS
 62
    4
 10
138.50431499999951
 20
59.240971666666553
 11
137.87345333333298
 21
58.540328333333292
  0
LINE
  8
_1-8_小物
  6
CONTINUOUS
 62
    4
 10
137.87345333333298
 20
58.540328333333292
 11
137.37413833333324
 21
58.514159999999833
  0
LINE
  8
_1-8_小物
  6
CONTINUOUS
 62
    4
 10
137.37413833333324
 20
58.514159999999833
 11
136.83333333333331
 21
68.833333333333144
  0
LINE
  8
_1-8_小物
  6
CONTINUOUS
 62
    4
 10
137.99999999999966
 20
67.499999999999943
 11
137.99999999999966
 21
68.833333333333144
  0
LINE
  8
_1-8_小物
  6
CONTINUOUS
 62
    4
 10
135.99408499999964
 20
59.179913333333104
 11
134.82901833333318
 21
59.240971666666553
  0
LINE
  8
_1-8_小物
  6
CONTINUOUS
 62
    4
 10
134.82901833333318
 20
59.240971666666553
 11
135.45987999999971
 21
58.540328333333292
  0
LINE
  8
_1-8_小物
  6
CONTINUOUS
 62
    4
 10
135.45987999999971
 20
58.540328333333292
 11
135.95919499999974
 21
58.514159999999833
  0
LINE
  8
_1-8_小物
  6
CONTINUOUS
 62
    4
 10
135.95919499999974
 20
58.514159999999833
 11
136.49999999999966
 21
68.833333333333144
  0
LINE
  8
_1-8_小物
  6
CONTINUOUS
 62
    4
 10
135.33333333333331
 20
67.499999999999943
 11
135.33333333333331
 21
68.833333333333144
  0
LINE
  8
_1-8_小物
  6
CONTINUOUS
 62
    4
 10
134.56046666666646
 20
66.452533333333065
 11
134.22968166666635
 21
68.720406666666747
  0
ARC
  8
_1-8_小物
  6
CONTINUOUS
 62
    4
 10
134.36161833333301
 20
68.73965166666656
 40
0.1333333333333333
 50
98.130101999941715
 51
188.29846599999718
  0
LINE
  8
_1-8_小物
  6
CONTINUOUS
 62
    4
 10
134.34276166666615
 20
68.871644999999887
 11
134.40836999999976
 21
68.881016666666653
  0
ARC
  8
_1-8_小物
  6
CONTINUOUS
 62
    4
 10
134.42722666666668
 20
68.749023333333241
 40
0.1333333333333333
 50
8.1301020000280779
 51
98.130102000237073
  0
LINE
  8
_1-8_小物
  6
CONTINUOUS
 62
    4
 10
134.55921999999975
 20
68.76787999999982
 11
134.87369666666621
 21
66.566539999999918
  0
LINE
  8
_1-8_小物
  6
CONTINUOUS
 62
    4
 10
138.77286666666623
 20
66.452533333333065
 11
139.10365166666634
 21
68.720406666666747
  0
ARC
  8
_1-8_小物
  6
CONTINUOUS
 62
    4
 10
138.97171499999968
 20
68.73965166666656
 40
0.1333333333333333
 50
351.70153399995951
 51
81.869898000058299
  0
LINE
  8
_1-8_小物
  6
CONTINUOUS
 62
    4
 10
138.99056999999959
 20
68.871644999999887
 11
138.92496333333293
 21
68.881016666666653
  0
ARC
  8
_1-8_小物
  6
CONTINUOUS
 62
    4
 10
138.90610666666663
 20
68.749023333333241
 40
0.1333333333333333
 50
81.869898000035832
 51
171.86989799997193
  0
LINE
  8
_1-8_小物
  6
CONTINUOUS
 62
    4
 10
138.77411333333293
 20
68.76787999999982
 11
138.45963666666648
 21
66.566539999999918
  0
LINE
  8
_1-8_小物
  6
CONTINUOUS
 62
    4
 10
138.77286666666623
 20
66.452533333333065
 11
139.10365166666634
 21
68.720406666666747
  0
ARC
  8
_1-8_小物
  6
CONTINUOUS
 62
    4
 10
138.97171499999968
 20
68.73965166666656
 40
0.1333333333333333
 50
351.70153399995951
 51
81.869898000058299
  0
LINE
  8
_1-8_小物
  6
CONTINUOUS
 62
    4
 10
138.99056999999959
 20
68.871644999999887
 11
138.92496333333293
 21
68.881016666666653
  0
ARC
  8
_1-8_小物
  6
CONTINUOUS
 62
    4
 10
138.90610666666663
 20
68.749023333333241
 40
0.1333333333333333
 50
81.869898000035832
 51
171.86989799997193
  0
LINE
  8
_1-8_小物
  6
CONTINUOUS
 62
    4
 10
138.77411333333293
 20
68.76787999999982
 11
138.45963666666648
 21
66.566539999999918
  0
LINE
  8
_1-8_小物
  6
CONTINUOUS
 62
    4
 10
138.33333333333331
 20
71.499999999999943
 11
137.99999999999966
 21
69.833333333333286
  0
LINE
  8
_1-8_小物
  6
CONTINUOUS
 62
    4
 10
137.99999999999966
 20
71.499999999999943
 11
137.99999999999966
 21
68.833333333333144
  0
LINE
  8
_1-8_小物
  6
CONTINUOUS
 62
    4
 10
136.83333333333331
 20
68.833333333333144
 11
136.66666666666663
 21
68.833333333333144
  0
LINE
  8
_1-8_小物
  6
CONTINUOUS
 62
    4
 10
136.66666666666663
 20
69.833333333333286
 11
136.66666666666663
 21
71.499999999999943
  0
LINE
  8
_1-8_小物
  6
CONTINUOUS
 62
    4
 10
136.99999999999966
 20
71.499999999999943
 11
136.66666666666663
 21
69.833333333333286
  0
LINE
  8
_1-8_小物
  6
CONTINUOUS
 62
    4
 10
136.33333333333303
 20
71.499999999999943
 11
136.66666666666663
 21
69.833333333333286
  0
LINE
  8
_1-8_小物
  6
CONTINUOUS
 62
    4
 10
135
 20
71.499999999999943
 11
135.33333333333331
 21
69.833333333333286
  0
LINE
  8
_1-8_小物
  6
CONTINUOUS
 62
    4
 10
135.33333333333331
 20
71.499999999999943
 11
135.33333333333331
 21
68.833333333333144
  0
LINE
  8
_1-8_小物
  6
CONTINUOUS
 62
    4
 10
136.49999999999966
 20
68.833333333333144
 11
136.66666666666663
 21
68.833333333333144
  0
LINE
  8
_1-8_小物
  6
CONTINUOUS
 62
    4
 10
138.33333333333331
 20
71.499999999999943
 11
135
 21
71.499999999999943
  0
ENDBLK
  0
BLOCK
  2
-005-_5_
 70
   64
 10
0
 20
0
 30
0
  0
LINE
  8
_1-8_小物
  6
CONTINUOUS
 62
    4
 10
63.406724999999938
 20
81.36390841279993
 11
62.74097166666661
 21
81.329018412800338
  0
LINE
  8
_1-8_小物
  6
CONTINUOUS
 62
    4
 10
64.405354999999872
 20
81.416245079466876
 11
64.037588333333247
 21
82.064551746133503
  0
LINE
  8
_1-8_小物
  6
CONTINUOUS
 62
    4
 10
64.037588333333247
 20
82.064551746133503
 11
63.371834999999919
 21
82.029661746133286
  0
LINE
  8
_1-8_小物
  6
CONTINUOUS
 62
    4
 10
63.371834999999919
 20
82.029661746133286
 11
63.406724999999938
 21
81.36390841279993
  0
LINE
  8
_1-8_小物
  6
CONTINUOUS
 62
    4
 10
65.071108333333314
 20
81.451135079466781
 11
64.405354999999872
 21
81.416245079466876
  0
LINE
  8
_1-8_小物
  6
CONTINUOUS
 62
    4
 10
66.069736666666643
 20
81.503471746133414
 11
65.701969999999733
 21
82.151778412800354
  0
LINE
  8
_1-8_小物
  6
CONTINUOUS
 62
    4
 10
65.701969999999733
 20
82.151778412800354
 11
65.036216666666633
 21
82.116888412800137
  0
LINE
  8
_1-8_小物
  6
CONTINUOUS
 62
    4
 10
65.036216666666633
 20
82.116888412800137
 11
65.071108333333314
 21
81.451135079466781
  0
LINE
  8
_1-8_小物
  6
CONTINUOUS
 62
    4
 10
66.735490000000027
 20
81.538361746133603
 11
66.069736666666643
 21
81.503471746133414
  0
LINE
  8
_1-8_小物
  6
CONTINUOUS
 62
    4
 10
67.734119999999734
 20
81.590698412799952
 11
67.366353333333336
 21
82.23900507946658
  0
LINE
  8
_1-8_小物
  6
CONTINUOUS
 62
    4
 10
67.366353333333336
 20
82.23900507946658
 11
66.700599999999952
 21
82.204115079466987
  0
LINE
  8
_1-8_小物
  6
CONTINUOUS
 62
    4
 10
66.700599999999952
 20
82.204115079466987
 11
66.735490000000027
 21
81.538361746133603
  0
LINE
  8
_1-8_小物
  6
CONTINUOUS
 62
    4
 10
68.399873333333289
 20
81.625588412800141
 11
67.734119999999734
 21
81.590698412799952
  0
LINE
  8
_1-8_小物
  6
CONTINUOUS
 62
    4
 10
69.398503333333338
 20
81.677925079466775
 11
69.030734999999936
 21
82.326231746133431
  0
LINE
  8
_1-8_小物
  6
CONTINUOUS
 62
    4
 10
69.030734999999936
 20
82.326231746133431
 11
68.364981666666608
 21
82.291341746133526
  0
LINE
  8
_1-8_小物
  6
CONTINUOUS
 62
    4
 10
68.364981666666608
 20
82.291341746133526
 11
68.399873333333289
 21
81.625588412800141
  0
LINE
  8
_1-8_小物
  6
CONTINUOUS
 62
    4
 10
70.064254999999889
 20
81.712815079466679
 11
69.398503333333338
 21
81.677925079466775
  0
LINE
  8
_1-8_小物
  6
CONTINUOUS
 62
    4
 10
70.695118333333198
 20
82.413458412800253
 11
70.029364999999871
 21
82.378568412800064
  0
LINE
  8
_1-8_小物
  6
CONTINUOUS
 62
    4
 10
70.029364999999871
 20
82.378568412800064
 11
70.064254999999889
 21
81.712815079466679
  0
LINE
  8
_1-8_小物
  6
CONTINUOUS
 62
    4
 10
71
 20
81.833333412800158
 11
70.695118333333198
 21
82.413458412800253
  0
LINE
  8
_1-8_小物
  6
CONTINUOUS
 62
    4
 10
63.406724999999938
 20
84.96942507946676
 11
62.74097166666661
 21
85.004315079466664
  0
LINE
  8
_1-8_小物
  6
CONTINUOUS
 62
    4
 10
64.405354999999872
 20
84.917088412800126
 11
64.037588333333247
 21
84.26878174613347
  0
LINE
  8
_1-8_小物
  6
CONTINUOUS
 62
    4
 10
64.037588333333247
 20
84.26878174613347
 11
63.371834999999919
 21
84.303671746133688
  0
LINE
  8
_1-8_小物
  6
CONTINUOUS
 62
    4
 10
63.371834999999919
 20
84.303671746133688
 11
63.406724999999938
 21
84.96942507946676
  0
LINE
  8
_1-8_小物
  6
CONTINUOUS
 62
    4
 10
65.071108333333314
 20
84.882198412799909
 11
64.405354999999872
 21
84.917088412800126
  0
LINE
  8
_1-8_小物
  6
CONTINUOUS
 62
    4
 10
66.069736666666643
 20
84.829861746133588
 11
65.701969999999733
 21
84.181555079466932
  0
LINE
  8
_1-8_小物
  6
CONTINUOUS
 62
    4
 10
65.701969999999733
 20
84.181555079466932
 11
65.036216666666633
 21
84.216445079466553
  0
LINE
  8
_1-8_小物
  6
CONTINUOUS
 62
    4
 10
65.036216666666633
 20
84.216445079466553
 11
65.071108333333314
 21
84.882198412799909
  0
LINE
  8
_1-8_小物
  6
CONTINUOUS
 62
    4
 10
66.735490000000027
 20
84.794971746133683
 11
66.069736666666643
 21
84.829861746133588
  0
LINE
  8
_1-8_小物
  6
CONTINUOUS
 62
    4
 10
67.734119999999734
 20
84.74263507946705
 11
67.366353333333336
 21
84.09432841280011
  0
LINE
  8
_1-8_小物
  6
CONTINUOUS
 62
    4
 10
67.366353333333336
 20
84.09432841280011
 11
66.700599999999952
 21
84.129218412800014
  0
LINE
  8
_1-8_小物
  6
CONTINUOUS
 62
    4
 10
66.700599999999952
 20
84.129218412800014
 11
66.735490000000027
 21
84.794971746133683
  0
LINE
  8
_1-8_小物
  6
CONTINUOUS
 62
    4
 10
68.399873333333289
 20
84.707745079466832
 11
67.734119999999734
 21
84.74263507946705
  0
LINE
  8
_1-8_小物
  6
CONTINUOUS
 62
    4
 10
69.398503333333338
 20
84.655408412799886
 11
69.030734999999936
 21
84.007101746133259
  0
LINE
  8
_1-8_小物
  6
CONTINUOUS
 62
    4
 10
69.030734999999936
 20
84.007101746133259
 11
68.364981666666608
 21
84.041991746133476
  0
LINE
  8
_1-8_小物
  6
CONTINUOUS
 62
    4
 10
68.364981666666608
 20
84.041991746133476
 11
68.399873333333289
 21
84.707745079466832
  0
LINE
  8
_1-8_小物
  6
CONTINUOUS
 62
    4
 10
70.064254999999889
 20
84.620518412800294
 11
69.398503333333338
 21
84.655408412799886
  0
LINE
  8
_1-8_小物
  6
CONTINUOUS
 62
    4
 10
70.695118333333198
 20
83.919875079466721
 11
70.029364999999871
 21
83.954765079466938
  0
LINE
  8
_1-8_小物
  6
CONTINUOUS
 62
    4
 10
70.029364999999871
 20
83.954765079466938
 11
70.064254999999889
 21
84.620518412800294
  0
LINE
  8
_1-8_小物
  6
CONTINUOUS
 62
    4
 10
63.019768333333218
 20
83.186435079466747
 11
63.591658333333271
 21
82.541868412800227
  0
LINE
  8
_1-8_小物
  6
CONTINUOUS
 62
    4
 10
63.623146666666628
 20
83.789815079466905
 11
62.999999999999829
 21
83.166666746133188
  0
LINE
  8
_1-8_小物
  6
CONTINUOUS
 62
    4
 10
71
 20
84.500000079466531
 11
70.695118333333198
 21
83.919875079466721
  0
LINE
  8
_1-8_小物
  6
CONTINUOUS
 62
    4
 10
68.399873333333289
 20
81.625588412800141
 11
69.952533333333122
 21
81.060466746133613
  0
LINE
  8
_1-8_小物
  6
CONTINUOUS
 62
    4
 10
68.399873333333289
 20
81.980315079466607
 11
70.066539999999918
 21
81.373696746133362
  0
LINE
  8
_1-8_小物
  6
CONTINUOUS
 62
    4
 10
68.399873333333289
 20
84.707745079466832
 11
69.952533333333122
 21
85.27286674613336
  0
LINE
  8
_1-8_小物
  6
CONTINUOUS
 62
    4
 10
68.399873333333289
 20
84.353018412800367
 11
70.066539999999918
 21
84.959636746133611
  0
LINE
  8
_1-8_小物
  6
CONTINUOUS
 62
    4
 10
62.679913333333161
 20
82.494085079466799
 11
62.74097166666661
 21
81.329018412800338
  0
LINE
  8
_1-8_小物
  6
CONTINUOUS
 62
    4
 10
62.74097166666661
 20
81.329018412800338
 11
62.040328333333321
 21
81.95988007946687
  0
LINE
  8
_1-8_小物
  6
CONTINUOUS
 62
    4
 10
62.040328333333321
 20
81.95988007946687
 11
62.014159999999833
 21
82.459195079466582
  0
LINE
  8
_1-8_小物
  6
CONTINUOUS
 62
    4
 10
62.014159999999833
 20
82.459195079466582
 11
72.333333333333144
 21
83.000000079466531
  0
LINE
  8
_1-8_小物
  6
CONTINUOUS
 62
    4
 10
71
 20
81.833333412800158
 11
72.333333333333144
 21
81.833333412800158
  0
LINE
  8
_1-8_小物
  6
CONTINUOUS
 62
    4
 10
62.679913333333161
 20
83.839248412800202
 11
62.74097166666661
 21
85.004315079466664
  0
LINE
  8
_1-8_小物
  6
CONTINUOUS
 62
    4
 10
62.74097166666661
 20
85.004315079466664
 11
62.040328333333321
 21
84.373453412800131
  0
LINE
  8
_1-8_小物
  6
CONTINUOUS
 62
    4
 10
62.040328333333321
 20
84.373453412800131
 11
62.014159999999833
 21
83.874138412800107
  0
LINE
  8
_1-8_小物
  6
CONTINUOUS
 62
    4
 10
62.014159999999833
 20
83.874138412800107
 11
72.333333333333144
 21
83.333333412800158
  0
LINE
  8
_1-8_小物
  6
CONTINUOUS
 62
    4
 10
71
 20
84.500000079466531
 11
72.333333333333144
 21
84.500000079466531
  0
LINE
  8
_1-8_小物
  6
CONTINUOUS
 62
    4
 10
69.952533333333122
 20
85.27286674613336
 11
72.220406666666804
 21
85.603651746133465
  0
ARC
  8
_1-8_小物
  6
CONTINUOUS
 62
    4
 10
72.239651666666589
 20
85.471715079466804
 40
0.1333333333333333
 50
8.13010199995208
 51
98.298466000011047
  0
LINE
  8
_1-8_小物
  6
CONTINUOUS
 62
    4
 10
72.371644999999944
 20
85.490571746133696
 11
72.38101666666671
 21
85.424963412800054
  0
ARC
  8
_1-8_小物
  6
CONTINUOUS
 62
    4
 10
72.249023333333298
 20
85.406106746133162
 40
0.1333333333333333
 50
278.130102000016
 51
8.130102000228419
  0
LINE
  8
_1-8_小物
  6
CONTINUOUS
 62
    4
 10
72.267879999999877
 20
85.274113412800062
 11
70.066539999999918
 21
84.959636746133611
  0
LINE
  8
_1-8_小物
  6
CONTINUOUS
 62
    4
 10
69.952533333333122
 20
81.060466746133613
 11
72.220406666666804
 21
80.729681746133508
  0
ARC
  8
_1-8_小物
  6
CONTINUOUS
 62
    4
 10
72.239651666666589
 20
80.861618412800169
 40
0.1333333333333333
 50
261.70153399996303
 51
351.86989800004795
  0
LINE
  8
_1-8_小物
  6
CONTINUOUS
 62
    4
 10
72.371644999999944
 20
80.842763412800224
 11
72.38101666666671
 21
80.90837007946692
  0
ARC
  8
_1-8_小物
  6
CONTINUOUS
 62
    4
 10
72.249023333333298
 20
80.927226746133215
 40
0.1333333333333333
 50
351.86989800003238
 51
81.869897999984005
  0
LINE
  8
_1-8_小物
  6
CONTINUOUS
 62
    4
 10
72.267879999999877
 20
81.059220079466911
 11
70.066539999999918
 21
81.373696746133362
  0
LINE
  8
_1-8_小物
  6
CONTINUOUS
 62
    4
 10
69.952533333333122
 20
81.060466746133613
 11
72.220406666666804
 21
80.729681746133508
  0
ARC
  8
_1-8_小物
  6
CONTINUOUS
 62
    4
 10
72.239651666666589
 20
80.861618412800169
 40
0.1333333333333333
 50
261.70153399996303
 51
351.86989800004795
  0
LINE
  8
_1-8_小物
  6
CONTINUOUS
 62
    4
 10
72.371644999999944
 20
80.842763412800224
 11
72.38101666666671
 21
80.90837007946692
  0
ARC
  8
_1-8_小物
  6
CONTINUOUS
 62
    4
 10
72.249023333333298
 20
80.927226746133215
 40
0.1333333333333333
 50
351.86989800003238
 51
81.869897999984005
  0
LINE
  8
_1-8_小物
  6
CONTINUOUS
 62
    4
 10
72.267879999999877
 20
81.059220079466911
 11
70.066539999999918
 21
81.373696746133362
  0
LINE
  8
_1-8_小物
  6
CONTINUOUS
 62
    4
 10
75
 20
81.500000079466531
 11
73.333333333333314
 21
81.833333412800158
  0
LINE
  8
_1-8_小物
  6
CONTINUOUS
 62
    4
 10
75
 20
81.833333412800158
 11
72.333333333333144
 21
81.833333412800158
  0
LINE
  8
_1-8_小物
  6
CONTINUOUS
 62
    4
 10
72.333333333333144
 20
83.000000079466531
 11
72.333333333333144
 21
83.166666746133188
  0
LINE
  8
_1-8_小物
  6
CONTINUOUS
 62
    4
 10
73.333333333333314
 20
83.166666746133188
 11
75
 21
83.166666746133188
  0
LINE
  8
_1-8_小物
  6
CONTINUOUS
 62
    4
 10
75
 20
82.833333412800158
 11
73.333333333333314
 21
83.166666746133188
  0
LINE
  8
_1-8_小物
  6
CONTINUOUS
 62
    4
 10
75
 20
83.500000079466815
 11
73.333333333333314
 21
83.166666746133188
  0
LINE
  8
_1-8_小物
  6
CONTINUOUS
 62
    4
 10
75
 20
84.833333412799846
 11
73.333333333333314
 21
84.500000079466531
  0
LINE
  8
_1-8_小物
  6
CONTINUOUS
 62
    4
 10
75
 20
84.500000079466531
 11
72.333333333333144
 21
84.500000079466531
  0
LINE
  8
_1-8_小物
  6
CONTINUOUS
 62
    4
 10
72.333333333333144
 20
83.333333412800158
 11
72.333333333333144
 21
83.166666746133188
  0
LINE
  8
_1-8_小物
  6
CONTINUOUS
 62
    4
 10
75
 20
81.500000079466531
 11
75
 21
84.833333412799846
  0
ENDBLK
  0
BLOCK
  2
-006-_6_
 70
   64
 10
0
 20
0
 30
0
  0
LINE
  8
_1-0_躯体
  6
CENTER2
 62
    4
 10
-136.66666658720018
 20
77.905127313106533
 11
-136.66666658720018
 21
54.833333333333286
  0
LINE
  8
_1-0_躯体
  6
CONTINUOUS
 62
    6
 10
-148.33333333333334
 20
71.5
 11
-125
 21
71.5
  0
LINE
  8
_1-0_躯体
  6
CONTINUOUS
 62
    6
 10
-125
 20
71.5
 11
-125
 21
16.5
  0
ENDBLK
  0
BLOCK
  2
-007-_7_
 70
   64
 10
0
 20
0
 30
0
  0
LINE
  8
_1-0_躯体
  6
CENTER2
 62
    4
 10
-63.33333325386684
 20
77.905127313106533
 11
-63.33333325386684
 21
54.833333333333286
  0
LINE
  8
_1-0_躯体
  6
CONTINUOUS
 62
    6
 10
-51.666666666666742
 20
71.5
 11
-75
 21
71.5
  0
LINE
  8
_1-0_躯体
  6
CONTINUOUS
 62
    6
 10
-75
 20
71.5
 11
-75
 21
16.5
  0
ENDBLK
  0
BLOCK
  2
-008-_8_
 70
   64
 10
0
 20
0
 30
0
  0
LINE
  8
_1-0_躯体
  6
CENTER2
 62
    4
 10
136.66666674613316
 20
77.905127313106533
 11
136.66666674613316
 21
54.833333333333286
  0
LINE
  8
_1-0_躯体
  6
CONTINUOUS
 62
    6
 10
148.33333333333326
 20
71.499999999999943
 11
125
 21
71.499999999999943
  0
LINE
  8
_1-0_躯体
  6
CONTINUOUS
 62
    6
 10
125
 20
71.499999999999943
 11
125
 21
16.499999999999972
  0
ENDBLK
  0
BLOCK
  2
-009-_9_
 70
   64
 10
0
 20
0
 30
0
  0
LINE
  8
_1-0_躯体
  6
CENTER2
 62
    4
 10
78.071793960773562
 20
83.166666666666686
 11
58.333333333333314
 21
83.166666666666686
  0
LINE
  8
_1-0_躯体
  6
CONTINUOUS
 62
    6
 10
75
 20
96.142200830885969
 11
75
 21
16.5
  0
ENDBLK
  0
BLOCK
  2
-010-_10_
 70
   64
 10
0
 20
0
 30
0
  0
LINE
  8
_1-8_小物
  6
CONTINUOUS
 62
    4
 10
-61.787483860264587
 20
-19
 11
-59.787483860264587
 21
-19
  0
LINE
  8
_1-8_小物
  6
CONTINUOUS
 62
    4
 10
-62.120817193597929
 20
-19.707106781186553
 11
-62.120817193597929
 21
-18.292893218813447
  0
LINE
  8
_1-8_小物
  6
CONTINUOUS
 62
    4
 10
-62.120817193597929
 20
-18.292893218813447
 11
-59.454150526931244
 21
-18.292893218813447
  0
LINE
  8
_1-8_小物
  6
CONTINUOUS
 62
    4
 10
-59.454150526931244
 20
-19.707106781186553
 11
-59.454150526931244
 21
-18.292893218813447
  0
LINE
  8
_1-8_小物
  6
CONTINUOUS
 62
    4
 10
-62.120817193597929
 20
-19.707106781186553
 11
-59.454150526931244
 21
-19.707106781186553
  0
ENDBLK
  0
BLOCK
  2
-011-_11_
 70
   64
 10
0
 20
0
 30
0
  0
LINE
  8
_1-8_小物
  6
CONTINUOUS
 62
    4
 10
-118.45415052693124
 20
-19
 11
-120.45415052693124
 21
-19
  0
LINE
  8
_1-8_小物
  6
CONTINUOUS
 62
    4
 10
-118.12081719359792
 20
-19.707106781186553
 11
-118.12081719359792
 21
-18.292893218813447
  0
LINE
  8
_1-8_小物
  6
CONTINUOUS
 62
    4
 10
-118.12081719359792
 20
-18.292893218813447
 11
-120.78748386026459
 21
-18.292893218813447
  0
LINE
  8
_1-8_小物
  6
CONTINUOUS
 62
    4
 10
-120.78748386026459
 20
-19.707106781186553
 11
-120.78748386026459
 21
-18.292893218813447
  0
LINE
  8
_1-8_小物
  6
CONTINUOUS
 62
    4
 10
-118.12081719359792
 20
-19.707106781186553
 11
-120.78748386026459
 21
-19.707106781186553
  0
ENDBLK
  0
BLOCK
  2
-012-_12_
 70
   64
 10
0
 20
0
 30
0
  0
LINE
  8
_1-8_小物
  6
CONTINUOUS
 62
    4
 10
138.21251613973538
 20
-19
 11
140.21251613973538
 21
-19
  0
LINE
  8
_1-8_小物
  6
CONTINUOUS
 62
    4
 10
137.87918280640207
 20
-19.707106781186553
 11
137.87918280640207
 21
-18.292893218813447
  0
LINE
  8
_1-8_小物
  6
CONTINUOUS
 62
    4
 10
137.87918280640207
 20
-18.292893218813447
 11
140.54584947306876
 21
-18.292893218813447
  0
LINE
  8
_1-8_小物
  6
CONTINUOUS
 62
    4
 10
140.54584947306876
 20
-19.707106781186553
 11
140.54584947306876
 21
-18.292893218813447
  0
LINE
  8
_1-8_小物
  6
CONTINUOUS
 62
    4
 10
137.87918280640207
 20
-19.707106781186553
 11
140.54584947306876
 21
-19.707106781186553
  0
ENDBLK
  0
BLOCK
  2
-013-_13_
 70
   64
 10
0
 20
0
 30
0
  0
LINE
  8
_1-8_小物
  6
CONTINUOUS
 62
    4
 10
81.545849473068756
 20
-19
 11
79.545849473068756
 21
-19
  0
LINE
  8
_1-8_小物
  6
CONTINUOUS
 62
    4
 10
81.879182806402071
 20
-19.707106781186553
 11
81.879182806402071
 21
-18.292893218813447
  0
LINE
  8
_1-8_小物
  6
CONTINUOUS
 62
    4
 10
81.879182806402071
 20
-18.292893218813447
 11
79.212516139735385
 21
-18.292893218813447
  0
LINE
  8
_1-8_小物
  6
CONTINUOUS
 62
    4
 10
79.212516139735385
 20
-19.707106781186553
 11
79.212516139735385
 21
-18.292893218813447
  0
LINE
  8
_1-8_小物
  6
CONTINUOUS
 62
    4
 10
81.879182806402071
 20
-19.707106781186553
 11
79.212516139735385
 21
-19.707106781186553
  0
ENDBLK
  0
BLOCK
  2
-014-_14_
 70
   64
 10
0
 20
0
 30
0
  0
LINE
  8
ADD_LINE
  6
DOT
 62
    4
 10
-134.16666658720018
 20
72.833333333333428
 11
-134.16666658720018
 21
71.833333333333314
  0
LINE
  8
ADD_LINE
  6
DOT
 62
    4
 10
-139.16666658720018
 20
72.833333333333428
 11
-139.16666658720018
 21
71.833333333333314
  0
LINE
  8
_1-4_フレ__ム
  6
CENTER2
 62
    4
 10
-136.66666658720018
 20
70.166666666666657
 11
-136.66666658720018
 21
74.000000000000142
  0
LINE
  8
_1-4_フレ__ム
  6
CONTINUOUS
 62
    4
 10
-136.66666658720018
 20
72.733333333333405
 11
-136.76666658719995
 21
72.833333333333428
  0
LINE
  8
_1-4_フレ__ム
  6
CONTINUOUS
 62
    4
 10
-136.56666658719982
 20
72.833333333333428
 11
-136.66666658720018
 21
72.733333333333405
  0
LINE
  8
_1-4_フレ__ム
  6
CONTINUOUS
 62
    4
 10
-132.00000007946622
 20
72.833333333333428
 11
-136.56666658719982
 21
72.833333333333428
  0
LINE
  8
_1-4_フレ__ム
  6
CONTINUOUS
 62
    4
 10
-132.00000007946622
 20
73.666666666666686
 11
-132.00000007946622
 21
72.833333333333428
  0
LINE
  8
_1-4_フレ__ム
  6
CONTINUOUS
 62
    4
 10
-132.00000007946622
 20
73.666666666666686
 11
-131.00000007946619
 21
73.666666666666686
  0
LINE
  8
_1-4_フレ__ム
  6
CONTINUOUS
 62
    4
 10
-136.76666658719995
 20
72.833333333333428
 11
-142.6666664887336
 21
72.833333333333428
  0
ARC
  8
_1-4_フレ__ム
  6
CONTINUOUS
 62
    4
 10
-122.76666648873319
 20
72.100000000000307
 40
0.2666666666666667
 50
270
 51
0
  0
ARC
  8
_1-4_フレ__ム
  6
CONTINUOUS
 62
    4
 10
-122.86666648873324
 20
72.000000000000142
 40
0.1666666666666666
 50
180
 51
270
  0
LINE
  8
_1-4_フレ__ム
  6
CONTINUOUS
 62
    4
 10
-122.86666648873324
 20
71.833333333333314
 11
-122.76666648873319
 21
71.833333333333314
  0
ARC
  8
_1-4_フレ__ム
  6
CONTINUOUS
 62
    4
 10
-124.99999982206677
 20
72.833333333333428
 40
0.1666666666666666
 50
270
 51
0
  0
LINE
  8
_1-4_フレ__ム
  6
CONTINUOUS
 62
    4
 10
-122.49999982206677
 20
72.100000000000307
 11
-122.49999982206677
 21
73.100000000000051
  0
ARC
  8
_1-4_フレ__ム
  6
CONTINUOUS
 62
    4
 10
-123.13333315540011
 20
73.100000000000051
 40
0.6333333333333333
 50
0
 51
90
  0
LINE
  8
_1-4_フレ__ム
  6
CONTINUOUS
 62
    4
 10
-131.00000007946619
 20
73.666666666666686
 11
-131.00000007946619
 21
72.666666666666799
  0
LINE
  8
_1-4_フレ__ム
  6
CONTINUOUS
 62
    4
 10
-124.99999982206677
 20
72.666666666666799
 11
-131.00000007946619
 21
72.666666666666799
  0
LINE
  8
_1-4_フレ__ム
  6
CONTINUOUS
 62
    4
 10
-141.66666648873328
 20
71.833333333333314
 11
-142.6666664887336
 21
72.833333333333428
  0
LINE
  8
_1-4_フレ__ム
  6
CONTINUOUS
 62
    4
 10
-141.66666648873328
 20
71.833333333333314
 11
-124
 21
71.833333333333314
  0
LINE
  8
ADD_LINE
  6
DOT
 62
    4
 10
-125.49999982206677
 20
72.666666666666799
 11
-125.49999982206677
 21
71.833333333333314
  0
LINE
  8
_1-4_フレ__ム
  6
CENTER2
 62
    4
 10
-123.51666648873319
 20
72.650000000000148
 11
-123.51666648873319
 21
73.483333333333178
  0
LINE
  8
_1-4_フレ__ム
  6
CENTER2
 62
    4
 10
-123.51666648873319
 20
72.650000000000148
 11
-124.34999982206682
 21
72.650000000000148
  0
LINE
  8
_1-4_フレ__ム
  6
CENTER2
 62
    4
 10
-123.51666648873319
 20
72.650000000000148
 11
-123.51666648873319
 21
71.816666666666549
  0
LINE
  8
_1-4_フレ__ム
  6
CENTER2
 62
    4
 10
-123.51666648873319
 20
72.650000000000148
 11
-122.68333315539985
 21
72.650000000000148
  0
ARC
  8
_1-4_フレ__ム
  6
CONTINUOUS
 62
    4
 10
-123.51666648873319
 20
72.650000000000148
 40
0.4833333333332726
 50
0
 51
180
  0
LINE
  8
_1-4_フレ__ム
  6
CONTINUOUS
 62
    4
 10
-123.99999982206677
 20
71.833333333333314
 11
-123.99999982206677
 21
72.650000000000148
  0
LINE
  8
_1-4_フレ__ム
  6
CONTINUOUS
 62
    4
 10
-123.03333315540021
 20
72.650000000000148
 11
-123.03333315540021
 21
72.000000000000142
  0
LINE
  8
_1-4_フレ__ム
  6
CONTINUOUS
 62
    4
 10
-124.8333331554001
 20
73.633333333333383
 11
-124.8333331554001
 21
72.833333333333428
  0
LINE
  8
_1-4_フレ__ム
  6
CONTINUOUS
 62
    4
 10
-123.13333315540011
 20
73.733333333333405
 11
-124.73333315540009
 21
73.733333333333405
  0
ARC
  8
_1-4_フレ__ム
  6
CONTINUOUS
 62
    4
 10
-124.73333315540009
 20
73.633333333333383
 40
0.0999999999999999
 50
90
 51
180
  0
ENDBLK
  0
BLOCK
  2
-015-_15_
 70
   64
 10
0
 20
0
 30
0
  0
LINE
  8
_1-4_フレ__ム
  6
CONTINUOUS
 62
    4
 10
76.333333333333485
 20
83.266666666666595
 11
76.233333333334031
 21
83.166666666666686
  0
LINE
  8
_1-4_フレ__ム
  6
CONTINUOUS
 62
    4
 10
76.233333333334031
 20
83.166666666666686
 11
76.333333333333883
 21
83.066666666666407
  0
LINE
  8
_1-4_フレ__ム
  6
CONTINUOUS
 62
    4
 10
76.333333333333883
 20
78.500000000000256
 11
76.333333333333883
 21
83.066666666666407
  0
LINE
  8
_1-4_フレ__ム
  6
CONTINUOUS
 62
    4
 10
76.333333333333485
 20
88.499999999999943
 11
76.333333333333485
 21
83.266666666666595
  0
ARC
  8
_1-4_フレ__ム
  6
CONTINUOUS
 62
    4
 10
78.099999995634505
 20
90.166666666666458
 40
0.1666666666666666
 50
270
 51
90
  0
LINE
  8
_1-4_フレ__ム
  6
CONTINUOUS
 62
    4
 10
77.999999995634539
 20
89.999999999999801
 11
77.999999995634539
 21
86.833333333333286
  0
LINE
  8
_1-4_フレ__ム
  6
CONTINUOUS
 62
    4
 10
77.499999995634539
 20
90.333333333333144
 11
78.099999995634505
 21
90.333333333333144
  0
LINE
  8
_1-4_フレ__ム
  6
CONTINUOUS
 62
    4
 10
77.499999995634539
 20
86.833333333333286
 11
77.999999995634539
 21
86.833333333333286
  0
LINE
  8
_1-4_フレ__ム
  6
CONTINUOUS
 62
    4
 10
77.499999995634539
 20
88.499999999999943
 11
76.333333333333485
 21
88.499999999999943
  0
LINE
  8
_1-4_フレ__ム
  6
CONTINUOUS
 62
    4
 10
77.499999995634539
 20
88.499999999999943
 11
77.499999995634539
 21
86.833333333333286
  0
LINE
  8
_1-4_フレ__ム
  6
CONTINUOUS
 62
    4
 10
77.499999995634539
 20
90.333333333333144
 11
77.499999995634539
 21
89.499999999999943
  0
ARC
  8
_1-4_フレ__ム
  6
CONTINUOUS
 62
    4
 10
76.666666666667368
 20
76.166666666666629
 40
0.1666666666666666
 50
180
 51
270
  0
ARC
  8
_1-4_フレ__ム
  6
CONTINUOUS
 62
    4
 10
76.483333333334372
 20
74.68333333333328
 40
0.4833333333332726
 50
270
 51
90
  0
ARC
  8
_1-4_フレ__ム
  6
CONTINUOUS
 62
    4
 10
76.966666666667493
 20
74.266666666666765
 40
0.5999999999999999
 50
270
 51
0
  0
LINE
  8
_1-4_フレ__ム
  6
CONTINUOUS
 62
    4
 10
75.666666666666913
 20
74.033333333333246
 11
75.666666666666913
 21
73.933333333333337
  0
LINE
  8
_1-4_フレ__ム
  6
CONTINUOUS
 62
    4
 10
76.483333333334372
 20
74.199999999999989
 11
75.833333333333826
 21
74.199999999999932
  0
ARC
  8
_1-4_フレ__ム
  6
CONTINUOUS
 62
    4
 10
75.833333333333826
 20
74.033333333333246
 40
0.1666666666666666
 50
90
 51
180
  0
ARC
  8
_1-4_フレ__ム
  6
CONTINUOUS
 62
    4
 10
75.933333333334019
 20
73.933333333333337
 40
0.2666666666666667
 50
180
 51
270
  0
LINE
  8
_1-4_フレ__ム
  6
CONTINUOUS
 62
    4
 10
75.933333333334019
 20
73.666666666666657
 11
76.966666666667493
 21
73.666666666666686
  0
LINE
  8
_1-4_フレ__ム
  6
CONTINUOUS
 62
    4
 10
75.333333333333485
 20
75.166666666666686
 11
76.483333333334372
 21
75.166666666666686
  0
LINE
  8
_1-4_フレ__ム
  6
CONTINUOUS
 62
    4
 10
77.499999995634539
 20
89.499999999999943
 11
75.333333333333485
 21
89.499999999999943
  0
LINE
  8
_1-4_フレ__ム
  6
CONTINUOUS
 62
    4
 10
75.333333333333485
 20
75.166666666666686
 11
75.333333333333485
 21
89.499999999999943
  0
LINE
  8
_1-4_フレ__ム
  6
CONTINUOUS
 62
    4
 10
76.333333333333883
 20
78.500000000000256
 11
76.500000000000682
 21
78.500000000000256
  0
LINE
  8
_1-4_フレ__ム
  6
CONTINUOUS
 62
    4
 10
76.500000000000682
 20
76.166666666666629
 11
76.500000000000682
 21
78.500000000000256
  0
LINE
  8
_1-4_フレ__ム
  6
CONTINUOUS
 62
    4
 10
77.999999995634539
 20
89.999999999999801
 11
78.099999995634505
 21
89.999999999999801
  0
LINE
  8
_1-4_フレ__ム
  6
CENTER2
 62
    4
 10
77.500000000000227
 20
83.166666666666686
 11
73.666666666666856
 21
83.166666666666686
  0
LINE
  8
_1-4_フレ__ム
  6
CENTER2
 62
    4
 10
76.483333333334372
 20
74.68333333333328
 11
77.316666666667516
 21
74.68333333333328
  0
LINE
  8
_1-4_フレ__ム
  6
CENTER2
 62
    4
 10
76.483333333334372
 20
74.68333333333328
 11
76.483333333334372
 21
75.516666666666765
  0
LINE
  8
_1-4_フレ__ム
  6
CENTER2
 62
    4
 10
76.483333333334372
 20
74.68333333333328
 11
75.650000000000887
 21
74.68333333333328
  0
LINE
  8
_1-4_フレ__ム
  6
CENTER2
 62
    4
 10
76.483333333334372
 20
74.68333333333328
 11
76.483333333334372
 21
73.849999999999852
  0
LINE
  8
_1-4_フレ__ム
  6
DASHED1
 62
    4
 10
76.333333333333883
 20
85.666666666666998
 11
75.333333333333485
 21
85.666666666666998
  0
LINE
  8
_1-4_フレ__ム
  6
DASHED1
 62
    4
 10
76.333333333333883
 20
80.666666666666998
 11
75.333333333333485
 21
80.666666666666998
  0
LINE
  8
_1-4_フレ__ム
  6
DASHED1
 62
    4
 10
76.500000000000455
 20
77.000000000000028
 11
75.333333333333485
 21
77.000000000000028
  0
LINE
  8
_1-4_フレ__ム
  6
CONTINUOUS
 62
    4
 10
77.466666666667379
 20
76.000000000000114
 11
76.666666666667368
 21
76.000000000000114
  0
LINE
  8
_1-4_フレ__ム
  6
CONTINUOUS
 62
    4
 10
77.566666666667402
 20
74.266666666666765
 11
77.566666666667402
 21
75.900000000000091
  0
ARC
  8
_1-4_フレ__ム
  6
CONTINUOUS
 62
    4
 10
77.466666666667379
 20
75.900000000000091
 40
0.0999999999999999
 50
0
 51
90
  0
ENDBLK
  0
BLOCK
  2
-016-_16_
 70
   64
 10
0
 20
0
 30
0
  0
LINE
  8
_1-8_小物
  6
CONTINUOUS
 62
    4
 10
-125.6277777810497
 20
72.896980221857604
 11
-125.71481481809442
 21
72.795973628210078
  0
ARC
  8
_1-8_小物
  6
CONTINUOUS
 62
    4
 10
-122.63333333333304
 20
73.600000000000051
 40
0.1333333333333333
 50
0
 51
89.999998490725531
  0
ARC
  8
_1-8_小物
  6
CONTINUOUS
 62
    4
 10
-122.63333333333304
 20
73.600000000000051
 40
0.2666666666666666
 50
0
 51
89.999998490725531
  0
ARC
  8
_1-8_小物
  6
CONTINUOUS
 62
    4
 10
-122.63333333333304
 20
71.966666666666697
 40
0.2666666666666666
 50
270
 51
0
  0
ARC
  8
_1-8_小物
  6
CONTINUOUS
 62
    4
 10
-123.36666666666639
 20
71.460655337100008
 40
0.5
 50
53.031405798550502
 51
131.81031489580724
  0
ARC
  8
_1-8_小物
  6
CONTINUOUS
 62
    4
 10
-122.98579444999972
 20
71.966666666666697
 40
0.1333333333333333
 50
233.03140197499982
 51
269.99999849072555
  0
LINE
  8
_1-8_小物
  6
CONTINUOUS
 62
    4
 10
-122.98942517016643
 20
71.700000000000045
 11
-122.63333333333304
 21
71.700000000000045
  0
ARC
  8
_1-8_小物
  6
CONTINUOUS
 62
    4
 10
-122.63333333333304
 20
71.966666666666697
 40
0.1333333333333333
 50
270
 51
0
  0
ARC
  8
_1-8_小物
  6
CONTINUOUS
 62
    4
 10
-123.36666666666639
 20
71.41700013343339
 40
0.3999999999999999
 50
55.537811429941833
 51
127.63786311680289
  0
LINE
  8
_1-8_小物
  6
CONTINUOUS
 62
    4
 10
-122.98579445349975
 20
71.833333333333371
 11
-122.63333333333304
 21
71.833333333333371
  0
ARC
  8
_1-8_小物
  6
CONTINUOUS
 62
    4
 10
-122.98942517016643
 20
71.966666666666697
 40
0.2666666666666666
 50
235.53781142990996
 51
270
  0
LINE
  8
_1-8_小物
  6
CONTINUOUS
 62
    4
 10
-123.69999999999973
 20
71.833333333333371
 11
-123.61093410836639
 21
71.733754639233354
  0
LINE
  8
_1-8_小物
  6
CONTINUOUS
 62
    4
 10
-122.36666666666639
 20
71.966666666666697
 11
-122.36666666666639
 21
73.600000000000051
  0
LINE
  8
_1-8_小物
  6
CONTINUOUS
 62
    4
 10
-122.49999999999976
 20
71.966666666666697
 11
-122.49999999999976
 21
73.600000000000051
  0
ARC
  8
_1-8_小物
  6
CONTINUOUS
 62
    4
 10
-125.36666666666639
 20
73.200000000000045
 40
0.5333333333333333
 50
180
 51
0.0000086701116401
  0
ARC
  8
_1-8_小物
  6
CONTINUOUS
 62
    4
 10
-125.36666666666639
 20
73.200000000000045
 40
0.3999999999999999
 50
180.00000000009771
 51
0.0000018823917002
  0
LINE
  8
_1-8_小物
  6
CONTINUOUS
 62
    4
 10
-125.76666666666641
 20
73.200000000000045
 11
-125.89999999999974
 21
73.200000000000045
  0
LINE
  8
_1-8_小物
  6
CONTINUOUS
 62
    4
 10
-126.83333333333309
 20
72.666666666666657
 11
-126.83333333333309
 21
72.799999999999983
  0
LINE
  8
_1-8_小物
  6
DASHED1
 62
    4
 10
-124.24999999292677
 20
73.866666666666703
 11
-124.24999999292677
 21
73.733333333333377
  0
LINE
  8
_1-8_小物
  6
CONTINUOUS
 62
    4
 10
-126.33333333333309
 20
72.799999999999983
 11
-126.33333333333309
 21
72.666666666666657
  0
LINE
  8
_1-8_小物
  6
CONTINUOUS
 62
    4
 10
-126.83333333333309
 20
72.799999999999983
 11
-125.71943350814163
 21
72.799999999999983
  0
LINE
  8
_1-8_小物
  6
CONTINUOUS
 62
    4
 10
-126.83333333333309
 20
72.666666666666657
 11
-125
 21
72.666666666666657
  0
LINE
  8
_1-8_小物
  6
CONTINUOUS
 62
    4
 10
-125.01389982519116
 20
72.799999999999983
 11
-124.8367006838145
 21
72.799999999999983
  0
ARC
  8
_1-8_小物
  6
CONTINUOUS
 62
    4
 10
-123.93643819168329
 20
72.366666666666703
 40
0.1333333333333333
 50
241.52902134410616
 51
270
  0
LINE
  8
_1-8_小物
  6
CONTINUOUS
 62
    4
 10
-124
 20
72.100000000000051
 11
-123.03333333333346
 21
72.100000000000051
  0
LINE
  8
_1-8_小物
  6
CONTINUOUS
 62
    4
 10
-123.93643819168329
 20
72.233333333333348
 11
-123.03333333333346
 21
72.233333333333348
  0
LINE
  8
_1-8_小物
  6
CONTINUOUS
 62
    4
 10
-122.63333332983308
 20
73.733333333333377
 11
-124.73333333333309
 21
73.733333333333377
  0
LINE
  8
_1-8_小物
  6
CONTINUOUS
 62
    4
 10
-124.83333333333309
 20
73.200000000000045
 11
-124.83333333333309
 21
73.633333333333383
  0
ARC
  8
_1-8_小物
  6
CONTINUOUS
 62
    4
 10
-124.73333333333309
 20
73.633333333333383
 40
0.0999999999999999
 50
90
 51
180
  0
LINE
  8
_1-8_小物
  6
CONTINUOUS
 62
    4
 10
-122.63333332633304
 20
73.866666666666703
 11
-124.73333333333305
 21
73.866666666666703
  0
LINE
  8
_1-8_小物
  6
CONTINUOUS
 62
    4
 10
-124.96666666666638
 20
73.200000000000045
 11
-124.96666666666638
 21
73.633333333333354
  0
ARC
  8
_1-8_小物
  6
CONTINUOUS
 62
    4
 10
-124.73333333333305
 20
73.633333333333354
 40
0.2333333333333333
 50
90
 51
180
  0
ENDBLK
  0
BLOCK
  2
-017-_17_
 70
   64
 10
0
 20
0
 30
0
  0
LINE
  8
_1-8_小物
  6
CONTINUOUS
 62
    4
 10
76.730313555191685
 20
76.794444447716671
 11
76.62930696154416
 21
76.881481484761395
  0
ARC
  8
_1-8_小物
  6
CONTINUOUS
 62
    4
 10
77.433333333334133
 20
73.800000000000011
 40
0.1333333333333333
 50
270
 51
359.99999849072555
  0
ARC
  8
_1-8_小物
  6
CONTINUOUS
 62
    4
 10
77.433333333334133
 20
73.800000000000011
 40
0.2666666666666666
 50
270
 51
359.99999849072555
  0
ARC
  8
_1-8_小物
  6
CONTINUOUS
 62
    4
 10
75.80000000000075
 20
73.800000000000011
 40
0.2666666666666666
 50
180
 51
270
  0
ARC
  8
_1-8_小物
  6
CONTINUOUS
 62
    4
 10
75.293988670434089
 20
74.53333333333336
 40
0.5
 50
323.03140579855119
 51
41.810314895802605
  0
ARC
  8
_1-8_小物
  6
CONTINUOUS
 62
    4
 10
75.80000000000075
 20
74.1524611166667
 40
0.1333333333333333
 50
143.03140197500721
 51
179.99999849072555
  0
LINE
  8
_1-8_小物
  6
CONTINUOUS
 62
    4
 10
75.533333333334099
 20
74.156091836833411
 11
75.533333333334099
 21
73.800000000000011
  0
ARC
  8
_1-8_小物
  6
CONTINUOUS
 62
    4
 10
75.80000000000075
 20
73.800000000000011
 40
0.1333333333333333
 50
180
 51
270
  0
ARC
  8
_1-8_小物
  6
CONTINUOUS
 62
    4
 10
75.250333466767472
 20
74.53333333333336
 40
0.3999999999999999
 50
325.53781142994416
 51
37.637863116802919
  0
LINE
  8
_1-8_小物
  6
CONTINUOUS
 62
    4
 10
75.666666666667425
 20
74.15246112016672
 11
75.666666666667425
 21
73.800000000000011
  0
ARC
  8
_1-8_小物
  6
CONTINUOUS
 62
    4
 10
75.80000000000075
 20
74.156091836833411
 40
0.2666666666666666
 50
145.53781142991247
 51
180
  0
LINE
  8
_1-8_小物
  6
CONTINUOUS
 62
    4
 10
75.666666666667425
 20
74.866666666666703
 11
75.567087972567435
 21
74.777600775033363
  0
LINE
  8
_1-8_小物
  6
CONTINUOUS
 62
    4
 10
75.80000000000075
 20
73.53333333333336
 11
77.433333333334133
 21
73.53333333333336
  0
LINE
  8
_1-8_小物
  6
CONTINUOUS
 62
    4
 10
75.80000000000075
 20
73.666666666666742
 11
77.433333333334133
 21
73.666666666666742
  0
ARC
  8
_1-8_小物
  6
CONTINUOUS
 62
    4
 10
77.033333333334099
 20
76.53333333333336
 40
0.5333333333333333
 50
90
 51
270.00000867010863
  0
ARC
  8
_1-8_小物
  6
CONTINUOUS
 62
    4
 10
77.033333333334099
 20
76.53333333333336
 40
0.3999999999999999
 50
90.0000000000977
 51
270.0000018823917
  0
LINE
  8
_1-8_小物
  6
CONTINUOUS
 62
    4
 10
77.033333333334099
 20
76.933333333333394
 11
77.033333333334099
 21
77.06666666666672
  0
LINE
  8
_1-8_小物
  6
CONTINUOUS
 62
    4
 10
76.500000000000739
 20
78.000000000000057
 11
76.633333333334065
 21
78.000000000000057
  0
LINE
  8
_1-8_小物
  6
DASHED1
 62
    4
 10
77.700000000000784
 20
75.416666659593744
 11
77.566666666667459
 21
75.416666659593744
  0
LINE
  8
_1-8_小物
  6
CONTINUOUS
 62
    4
 10
76.633333333334065
 20
77.500000000000057
 11
76.500000000000739
 21
77.500000000000057
  0
LINE
  8
_1-8_小物
  6
CONTINUOUS
 62
    4
 10
76.633333333334065
 20
78.000000000000057
 11
76.633333333334065
 21
76.886100174808604
  0
LINE
  8
_1-8_小物
  6
CONTINUOUS
 62
    4
 10
76.633333333334065
 20
76.180566491858144
 11
76.633333333334065
 21
76.003367350481085
  0
LINE
  8
_1-8_小物
  6
CONTINUOUS
 62
    4
 10
76.500000000000739
 20
78.000000000000057
 11
76.500000000000739
 21
76.166666666666629
  0
ARC
  8
_1-8_小物
  6
CONTINUOUS
 62
    4
 10
76.200000000000784
 20
75.103104858350264
 40
0.1333333333333333
 50
151.52902134424266
 51
180
  0
LINE
  8
_1-8_小物
  6
CONTINUOUS
 62
    4
 10
76.066666666667402
 20
75.103104858350264
 11
76.066666666667402
 21
74.199999999999989
  0
LINE
  8
_1-8_小物
  6
CONTINUOUS
 62
    4
 10
75.933333333334133
 20
75.166666666666686
 11
75.933333333334133
 21
74.199999999999989
  0
LINE
  8
_1-8_小物
  6
CONTINUOUS
 62
    4
 10
77.033333333334099
 20
76.133333333333354
 11
77.466666666667436
 21
76.133333333333354
  0
LINE
  8
_1-8_小物
  6
CONTINUOUS
 62
    4
 10
77.700000000000784
 20
73.799999993000029
 11
77.700000000000784
 21
75.900000000000006
  0
ARC
  8
_1-8_小物
  6
CONTINUOUS
 62
    4
 10
77.466666666667436
 20
75.900000000000006
 40
0.2333333333333333
 50
0
 51
90
  0
LINE
  8
_1-8_小物
  6
CONTINUOUS
 62
    4
 10
77.033333333334099
 20
76.000000000000057
 11
77.466666666667493
 21
76.000000000000057
  0
LINE
  8
_1-8_小物
  6
CONTINUOUS
 62
    4
 10
77.566666666667459
 20
73.799999996500048
 11
77.566666666667459
 21
75.900000000000091
  0
ARC
  8
_1-8_小物
  6
CONTINUOUS
 62
    4
 10
77.466666666667493
 20
75.900000000000091
 40
0.0999999999999999
 50
0
 51
90
  0
ENDBLK
  0
BLOCK
  2
-018-_18_
 70
   64
 10
0
 20
0
 30
0
  0
LINE
  8
_1-7_カバ__
  6
CENTER2
 62
    4
 10
-100
 20
81.166666666666686
 11
-100
 21
77.166666666666629
  0
LINE
  8
_1-7_カバ__
  6
CENTER2
 62
    4
 10
-128.33333333333326
 20
81.166666666666686
 11
-128.33333333333326
 21
77.166666666666629
  0
LINE
  8
_1-7_カバ__
  6
CENTER2
 62
    4
 10
-71.666666666666742
 20
81.166666666666686
 11
-71.666666666666742
 21
77.166666666666629
  0
ARC
  8
_1-7_カバ__
  6
CONTINUOUS
 62
    4
 10
-144.49999999999994
 20
79.000000000000057
 40
0.1666666666666666
 50
90
 51
180
  0
LINE
  8
_1-7_カバ__
  6
CONTINUOUS
 62
    4
 10
-144.6666666666666
 20
75.333333333333371
 11
-144.6666666666666
 21
79.000000000000057
  0
ARC
  8
_1-7_カバ__
  6
CONTINUOUS
 62
    4
 10
-144.49999999999994
 20
75.333333333333371
 40
0.1666666666666666
 50
180
 51
270
  0
ARC
  8
_1-7_カバ__
  6
CONTINUOUS
 62
    4
 10
-144.49999999999994
 20
79.000000000000057
 40
0.5
 50
90
 51
180
  0
LINE
  8
_1-7_カバ__
  6
CONTINUOUS
 62
    4
 10
-144.99999999999994
 20
75.333333333333371
 11
-144.99999999999994
 21
79.000000000000057
  0
ARC
  8
_1-7_カバ__
  6
CONTINUOUS
 62
    4
 10
-144.49999999999994
 20
75.333333333333371
 40
0.5
 50
180
 51
270
  0
ARC
  8
_1-7_カバ__
  6
CONTINUOUS
 62
    4
 10
-55.500000000000114
 20
79.000000000000057
 40
0.1666666666666666
 50
0
 51
90
  0
LINE
  8
_1-7_カバ__
  6
CONTINUOUS
 62
    4
 10
-55.333333333333428
 20
75.333333333333371
 11
-55.333333333333428
 21
79.000000000000057
  0
ARC
  8
_1-7_カバ__
  6
CONTINUOUS
 62
    4
 10
-55.500000000000114
 20
75.333333333333371
 40
0.1666666666666666
 50
270
 51
0
  0
ARC
  8
_1-7_カバ__
  6
CONTINUOUS
 62
    4
 10
-55.500000000000114
 20
79.000000000000057
 40
0.5
 50
0
 51
90
  0
LINE
  8
_1-7_カバ__
  6
CONTINUOUS
 62
    4
 10
-55.000000000000114
 20
75.333333333333371
 11
-55.000000000000114
 21
79.000000000000057
  0
ARC
  8
_1-7_カバ__
  6
CONTINUOUS
 62
    4
 10
-55.500000000000114
 20
75.333333333333371
 40
0.5
 50
270
 51
0
  0
LINE
  8
_1-7_カバ__
  6
CONTINUOUS
 62
    4
 10
-144.49999999999994
 20
79.166666666666686
 11
-55.500000000000114
 21
79.166666666666686
  0
LINE
  8
_1-7_カバ__
  6
CONTINUOUS
 62
    4
 10
-144.49999999999994
 20
79.500000000000057
 11
-55.500000000000114
 21
79.500000000000057
  0
LINE
  8
_1-7_カバ__
  6
CONTINUOUS
 62
    4
 10
-141.6666666666666
 20
75.166666666666742
 11
-141.6666666666666
 21
74.833333333333371
  0
LINE
  8
_1-7_カバ__
  6
CONTINUOUS
 62
    4
 10
-144.49999999999994
 20
74.833333333333371
 11
-141.6666666666666
 21
74.833333333333371
  0
LINE
  8
_1-7_カバ__
  6
CONTINUOUS
 62
    4
 10
-144.49999999999994
 20
75.166666666666742
 11
-141.6666666666666
 21
75.166666666666742
  0
LINE
  8
_1-7_カバ__
  6
CONTINUOUS
 62
    4
 10
-58.333333333333428
 20
75.166666666666742
 11
-58.333333333333428
 21
74.833333333333371
  0
LINE
  8
_1-7_カバ__
  6
CONTINUOUS
 62
    4
 10
-55.500000000000114
 20
74.833333333333371
 11
-58.333333333333428
 21
74.833333333333371
  0
LINE
  8
_1-7_カバ__
  6
CONTINUOUS
 62
    4
 10
-55.500000000000114
 20
75.166666666666742
 11
-58.333333333333428
 21
75.166666666666742
  0
LINE
  8
_1-7_カバ__
  6
DASHED1
 62
    4
 10
-127.58333333333327
 20
79.166666666666686
 11
-127.24999999999993
 21
79.500000000000057
  0
LINE
  8
_1-7_カバ__
  6
DASHED1
 62
    4
 10
-129.08333333333326
 20
79.166666666666686
 11
-129.4166666666666
 21
79.500000000000057
  0
LINE
  8
_1-7_カバ__
  6
DASHED1
 62
    4
 10
-70.916666666666742
 20
79.166666666666629
 11
-70.583333333333428
 21
79.5
  0
LINE
  8
_1-7_カバ__
  6
DASHED1
 62
    4
 10
-72.416666666666742
 20
79.166666666666629
 11
-72.750000000000114
 21
79.5
  0
ENDBLK
  0
BLOCK
  2
-019-_19_
 70
   64
 10
0
 20
0
 30
0
  0
LINE
  8
_1-5_ア__ム
  6
CONTINUOUS
 62
    4
 10
-140.00000000000156
 20
79.166666648033186
 11
-140.00000000000156
 21
75.500000093133423
  0
ARC
  8
_1-5_ア__ム
  6
CONTINUOUS
 62
    4
 10
-138.33333333333491
 20
75.500000093133423
 40
1.6666666666666665
 50
180
 51
270
  0
LINE
  8
_1-5_ア__ム
  6
DASHED1
 62
    4
 10
-136.00000000000156
 20
78.233333347966692
 11
-136.00000000000156
 21
77.500000014633343
  0
LINE
  8
_1-5_ア__ム
  6
DASHED1
 62
    4
 10
-130.66666666666794
 20
78.233333347966692
 11
-130.66666666666794
 21
77.500000014633343
  0
LINE
  8
_1-5_ア__ム
  6
DASHED1
 62
    4
 10
-121.66666666666838
 20
78.233333347966692
 11
-121.66666666666838
 21
77.500000014633343
  0
LINE
  8
_1-5_ア__ム
  6
DASHED1
 62
    4
 10
-119.66666666666808
 20
78.233333347966692
 11
-119.66666666666808
 21
77.500000014633343
  0
LINE
  8
_1-5_ア__ム
  6
DASHED1
 62
    4
 10
-133.66666666666822
 20
78.233333347966692
 11
-133.66666666666822
 21
77.500000014633343
  0
LINE
  8
_1-5_ア__ム
  6
DASHED1
 62
    4
 10
-125.33333333333491
 20
78.233333347966692
 11
-125.33333333333491
 21
77.500000014633343
  0
LINE
  8
_1-5_ア__ム
  6
DASHED1
 62
    4
 10
-121.00000000000156
 20
78.233333347966692
 11
-121.00000000000156
 21
77.500000014633343
  0
LINE
  8
_1-5_ア__ム
  6
CONTINUOUS
 62
    4
 10
-60.000000000001592
 20
79.166666666666629
 11
-60.000000000001592
 21
75.500000093133423
  0
ARC
  8
_1-5_ア__ム
  6
CONTINUOUS
 62
    4
 10
-61.666666666668277
 20
75.500000093133423
 40
1.6666666666666665
 50
270
 51
0
  0
LINE
  8
_1-5_ア__ム
  6
CONTINUOUS
 62
    4
 10
-140.00000000000156
 20
79.166666666666629
 11
-60.000000000001592
 21
79.166666666666629
  0
LINE
  8
_1-5_ア__ム
  6
DASHED1
 62
    4
 10
-140.00000000000156
 20
78.233333347966692
 11
-60.000000000001592
 21
78.233333347966692
  0
LINE
  8
_1-5_ア__ム
  6
DASHED1
 62
    4
 10
-140.00000000000156
 20
77.500000014633343
 11
-60.000000000001592
 21
77.500000014633343
  0
LINE
  8
_1-5_ア__ム
  6
CONTINUOUS
 62
    4
 10
-138.33333333333491
 20
73.833333426466766
 11
-61.666666666668277
 21
73.833333426466766
  0
ENDBLK
  0
BLOCK
  2
-020-_20_
 70
   64
 10
0
 20
0
 30
0
  0
LINE
  8
_1-5_ア__ム
  6
CONTINUOUS
 62
    4
 10
82.666666666664355
 20
79.166666648033186
 11
82.666666666664355
 21
75.500000093133423
  0
ARC
  8
_1-5_ア__ム
  6
CONTINUOUS
 62
    4
 10
84.333333333331041
 20
75.500000093133423
 40
1.6666666666666665
 50
180
 51
270
  0
LINE
  8
_1-5_ア__ム
  6
DASHED1
 62
    4
 10
86.666666666664298
 20
78.233333347966692
 11
86.666666666664298
 21
77.499995060201854
  0
LINE
  8
_1-5_ア__ム
  6
DASHED1
 62
    4
 10
91.99999999999801
 20
78.233333347966692
 11
91.99999999999801
 21
77.499995060201854
  0
LINE
  8
_1-5_ア__ム
  6
DASHED1
 62
    4
 10
95.899999999997249
 20
78.233333347966692
 11
95.899999999997249
 21
77.499995060201854
  0
LINE
  8
_1-5_ア__ム
  6
DASHED1
 62
    4
 10
98.699999999997203
 20
78.233333347966692
 11
98.699999999997203
 21
77.499995060201854
  0
LINE
  8
_1-5_ア__ム
  6
DASHED1
 62
    4
 10
97.366666666663889
 20
78.233333347966692
 11
97.366666666663889
 21
77.499995060201854
  0
LINE
  8
_1-5_ア__ム
  6
DASHED1
 62
    4
 10
104.56666666666399
 20
77.499995060201854
 11
104.56666666666399
 21
78.233333347966692
  0
LINE
  8
_1-5_ア__ム
  6
CONTINUOUS
 62
    4
 10
139.99999999999773
 20
79.166666666666629
 11
139.99999999999773
 21
75.500000093133423
  0
ARC
  8
_1-5_ア__ム
  6
CONTINUOUS
 62
    4
 10
138.33333333333098
 20
75.500000093133423
 40
1.6666666666666665
 50
270
 51
0
  0
LINE
  8
_1-5_ア__ム
  6
CONTINUOUS
 62
    4
 10
82.666666666664355
 20
79.166666666666629
 11
139.99999999999773
 21
79.166666666666629
  0
LINE
  8
_1-5_ア__ム
  6
DASHED1
 62
    4
 10
82.666666666664355
 20
78.233333347966692
 11
139.99999999999773
 21
78.233333347966692
  0
LINE
  8
_1-5_ア__ム
  6
DASHED1
 62
    4
 10
82.666666666664355
 20
77.499995060201854
 11
139.99999999999773
 21
77.499995060201854
  0
LINE
  8
_1-5_ア__ム
  6
CONTINUOUS
 62
    4
 10
84.333333333331041
 20
73.833333426466766
 11
138.33333333333098
 21
73.833333426466766
  0
ENDBLK
  0
BLOCK
  2
-021-_21_
 70
   64
 10
0
 20
0
 30
0
  0
LINE
  8
_1-8_小物
  6
CONTINUOUS
 62
    4
 10
139.66666674613191
 20
72.833333333333286
 11
133.66666674613163
 21
72.833333333333286
  0
LINE
  8
_1-8_小物
  6
CONTINUOUS
 62
    4
 10
139.66666674613191
 20
72.333333333333286
 11
133.66666674613163
 21
72.333333333333286
  0
LINE
  8
_1-8_小物
  6
CONTINUOUS
 62
    4
 10
139.66666674613191
 20
72.833333333333286
 11
139.66666674613191
 21
72.333333333333286
  0
LINE
  8
_1-8_小物
  6
CONTINUOUS
 62
    4
 10
133.66666674613163
 20
72.833333333333286
 11
133.66666674613163
 21
72.333333333333286
  0
LINE
  8
_1-8_小物
  6
CONTINUOUS
 62
    4
 10
138.16666674613191
 20
72.833333333333286
 11
138.13036248486503
 21
73.248292938333321
  0
LINE
  8
_1-8_小物
  6
CONTINUOUS
 62
    4
 10
135.20297100736508
 20
73.248292938333321
 11
135.16666674613191
 21
72.833333333333286
  0
ARC
  8
_1-8_小物
  6
CONTINUOUS
 62
    4
 10
135.5317152577648
 20
73.219531543233217
 40
0.3299999999999999
 50
127.36755803206529
 51
175.00000000119829
  0
ARC
  8
_1-8_小物
  6
CONTINUOUS
 62
    4
 10
137.80161823449845
 20
73.219531543233217
 40
0.3299999999999999
 50
4.9999999988017167
 51
52.63244196794556
  0
ARC
  8
_1-8_小物
  6
CONTINUOUS
 62
    4
 10
136.66666674613163
 20
71.733333333333263
 40
2.1999999999999997
 50
52.632441967707152
 51
68.266383543400238
  0
ARC
  8
_1-8_小物
  6
CONTINUOUS
 62
    4
 10
136.66666674613163
 20
71.733333333333263
 40
2.1999999999999997
 50
111.74840859090261
 51
127.36755803230515
  0
LINE
  8
_1-8_小物
  6
CONTINUOUS
 62
    4
 10
136.7716667461317
 20
73.919709043200015
 11
136.7716667461317
 21
73.774437413199877
  0
LINE
  8
_1-8_小物
  6
CONTINUOUS
 62
    4
 10
136.88742964009873
 20
73.919709043200015
 11
136.7716667461317
 21
73.919709043200015
  0
LINE
  8
_1-8_小物
  6
CONTINUOUS
 62
    4
 10
137.48083450229831
 20
73.774437413199877
 11
136.88742964009873
 21
73.919709043200015
  0
LINE
  8
_1-8_小物
  6
CONTINUOUS
 62
    4
 10
136.44590385213166
 20
73.919709043200015
 11
136.01260042956494
 21
73.831230436066704
  0
LINE
  8
_1-8_小物
  6
CONTINUOUS
 62
    4
 10
136.01260042956494
 20
73.831230436066704
 11
135.85249898993209
 21
73.774437413199877
  0
LINE
  8
_1-8_小物
  6
CONTINUOUS
 62
    4
 10
136.56166674613166
 20
73.919709043200015
 11
136.44590385213166
 21
73.919709043200015
  0
LINE
  8
_1-8_小物
  6
CONTINUOUS
 62
    4
 10
136.56166674613166
 20
73.774437413199877
 11
136.56166674613166
 21
73.919709043200015
  0
LINE
  8
_1-8_小物
  6
CONTINUOUS
 62
    4
 10
136.7716667461317
 20
73.774437413199877
 11
136.66666674613163
 21
73.776139137999991
  0
LINE
  8
_1-8_小物
  6
CONTINUOUS
 62
    4
 10
136.66666674613163
 20
73.776139137999991
 11
136.56166674613166
 21
73.774437413199877
  0
LINE
  8
_1-8_小物
  6
CONTINUOUS
 62
    4
 10
138.13036248486503
 20
73.248292938333321
 11
135.20297100736508
 21
73.248292938333321
  0
LINE
  8
_1-8_小物
  6
CONTINUOUS
 62
    4
 10
136.66666674613163
 20
73.481801815566683
 11
135.33142970096497
 21
73.481801815566683
  0
LINE
  8
_1-8_小物
  6
CONTINUOUS
 62
    4
 10
138.00190379126514
 20
73.481801815566683
 11
136.66666674613163
 21
73.481801815566683
  0
ENDBLK
  0
BLOCK
  2
-022-_22_
 70
   64
 10
0
 20
0
 30
0
  0
LINE
  8
_1-8_小物
  6
CONTINUOUS
 62
    4
 10
-133.66666658720123
 20
73.333333333333428
 11
-139.66666658720152
 21
73.333333333333428
  0
LINE
  8
_1-8_小物
  6
CONTINUOUS
 62
    4
 10
-133.66666658720123
 20
72.833333333333428
 11
-139.66666658720152
 21
72.833333333333428
  0
LINE
  8
_1-8_小物
  6
CONTINUOUS
 62
    4
 10
-133.66666658720123
 20
73.333333333333428
 11
-133.66666658720123
 21
72.833333333333428
  0
LINE
  8
_1-8_小物
  6
CONTINUOUS
 62
    4
 10
-139.66666658720152
 20
73.333333333333428
 11
-139.66666658720152
 21
72.833333333333428
  0
LINE
  8
_1-8_小物
  6
CONTINUOUS
 62
    4
 10
-135.16666658720123
 20
73.333333333333428
 11
-135.20297084846806
 21
73.748292938333464
  0
LINE
  8
_1-8_小物
  6
CONTINUOUS
 62
    4
 10
-138.13036232596806
 20
73.748292938333464
 11
-138.16666658720123
 21
73.333333333333428
  0
ARC
  8
_1-8_小物
  6
CONTINUOUS
 62
    4
 10
-137.80161807556834
 20
73.719531543233359
 40
0.3299999999999999
 50
127.36755803205445
 51
175.00000000119871
  0
ARC
  8
_1-8_小物
  6
CONTINUOUS
 62
    4
 10
-135.5317150988347
 20
73.719531543233359
 40
0.3299999999999999
 50
4.999999998801286
 51
52.63244196794556
  0
ARC
  8
_1-8_小物
  6
CONTINUOUS
 62
    4
 10
-136.66666658720152
 20
72.233333333333405
 40
2.1999999999999997
 50
52.632441967704935
 51
68.266383543398447
  0
ARC
  8
_1-8_小物
  6
CONTINUOUS
 62
    4
 10
-136.66666658720152
 20
72.233333333333405
 40
2.1999999999999997
 50
111.74840859090331
 51
127.36755803230515
  0
LINE
  8
_1-8_小物
  6
CONTINUOUS
 62
    4
 10
-136.56166658720139
 20
74.419709043200157
 11
-136.56166658720139
 21
74.274437413200019
  0
LINE
  8
_1-8_小物
  6
CONTINUOUS
 62
    4
 10
-136.44590369323441
 20
74.419709043200157
 11
-136.56166658720139
 21
74.419709043200157
  0
LINE
  8
_1-8_小物
  6
CONTINUOUS
 62
    4
 10
-135.85249883103478
 20
74.274437413200019
 11
-136.44590369323441
 21
74.419709043200157
  0
LINE
  8
_1-8_小物
  6
CONTINUOUS
 62
    4
 10
-136.88742948120142
 20
74.419709043200157
 11
-137.3207329037682
 21
74.331230436066846
  0
LINE
  8
_1-8_小物
  6
CONTINUOUS
 62
    4
 10
-137.3207329037682
 20
74.331230436066846
 11
-137.48083434340106
 21
74.274437413200019
  0
LINE
  8
_1-8_小物
  6
CONTINUOUS
 62
    4
 10
-136.77166658720142
 20
74.419709043200157
 11
-136.88742948120142
 21
74.419709043200157
  0
LINE
  8
_1-8_小物
  6
CONTINUOUS
 62
    4
 10
-136.77166658720142
 20
74.274437413200019
 11
-136.77166658720142
 21
74.419709043200157
  0
LINE
  8
_1-8_小物
  6
CONTINUOUS
 62
    4
 10
-136.56166658720139
 20
74.274437413200019
 11
-136.66666658720152
 21
74.276139138000133
  0
LINE
  8
_1-8_小物
  6
CONTINUOUS
 62
    4
 10
-136.66666658720152
 20
74.276139138000133
 11
-136.77166658720142
 21
74.274437413200019
  0
LINE
  8
_1-8_小物
  6
CONTINUOUS
 62
    4
 10
-135.20297084846806
 20
73.748292938333464
 11
-138.13036232596806
 21
73.748292938333464
  0
LINE
  8
_1-8_小物
  6
CONTINUOUS
 62
    4
 10
-136.66666658720152
 20
73.981801815566826
 11
-138.00190363236817
 21
73.981801815566826
  0
LINE
  8
_1-8_小物
  6
CONTINUOUS
 62
    4
 10
-135.33142954206795
 20
73.981801815566826
 11
-136.66666658720152
 21
73.981801815566826
  0
ENDBLK
  0
BLOCK
  2
-023-_23_
 70
   64
 10
0
 20
0
 30
0
  0
LINE
  8
_1-8_小物
  6
CONTINUOUS
 62
    4
 10
-60.333333253868147
 20
72.833333333333314
 11
-66.333333253868403
 21
72.833333333333314
  0
LINE
  8
_1-8_小物
  6
CONTINUOUS
 62
    4
 10
-60.333333253868147
 20
72.333333333333314
 11
-66.333333253868403
 21
72.333333333333314
  0
LINE
  8
_1-8_小物
  6
CONTINUOUS
 62
    4
 10
-60.333333253868147
 20
72.833333333333314
 11
-60.333333253868147
 21
72.333333333333314
  0
LINE
  8
_1-8_小物
  6
CONTINUOUS
 62
    4
 10
-66.333333253868403
 20
72.833333333333314
 11
-66.333333253868403
 21
72.333333333333314
  0
LINE
  8
_1-8_小物
  6
CONTINUOUS
 62
    4
 10
-61.833333253868147
 20
72.833333333333314
 11
-61.86963751513494
 21
73.24829293833335
  0
LINE
  8
_1-8_小物
  6
CONTINUOUS
 62
    4
 10
-64.797028992634949
 20
73.24829293833335
 11
-64.833333253868147
 21
72.833333333333314
  0
ARC
  8
_1-8_小物
  6
CONTINUOUS
 62
    4
 10
-64.468284742235227
 20
73.219531543233245
 40
0.3299999999999999
 50
127.36755803205052
 51
175.00000000119871
  0
ARC
  8
_1-8_小物
  6
CONTINUOUS
 62
    4
 10
-62.19838176550158
 20
73.219531543233245
 40
0.3299999999999999
 50
4.999999998801286
 51
52.632441967949475
  0
ARC
  8
_1-8_小物
  6
CONTINUOUS
 62
    4
 10
-63.333333253868403
 20
71.733333333333292
 40
2.1999999999999997
 50
52.632441967704935
 51
68.266383543398447
  0
ARC
  8
_1-8_小物
  6
CONTINUOUS
 62
    4
 10
-63.333333253868403
 20
71.733333333333292
 40
2.1999999999999997
 50
111.74840859090331
 51
127.36755803230515
  0
LINE
  8
_1-8_小物
  6
CONTINUOUS
 62
    4
 10
-63.228333253868271
 20
73.919709043200044
 11
-63.228333253868271
 21
73.774437413199905
  0
LINE
  8
_1-8_小物
  6
CONTINUOUS
 62
    4
 10
-63.112570359901326
 20
73.919709043200044
 11
-63.228333253868271
 21
73.919709043200044
  0
LINE
  8
_1-8_小物
  6
CONTINUOUS
 62
    4
 10
-62.519165497701664
 20
73.774437413199905
 11
-63.112570359901326
 21
73.919709043200044
  0
LINE
  8
_1-8_小物
  6
CONTINUOUS
 62
    4
 10
-63.554096147868307
 20
73.919709043200044
 11
-63.987399570435116
 21
73.831230436066733
  0
LINE
  8
_1-8_小物
  6
CONTINUOUS
 62
    4
 10
-63.987399570435116
 20
73.831230436066733
 11
-64.14750101006797
 21
73.774437413199905
  0
LINE
  8
_1-8_小物
  6
CONTINUOUS
 62
    4
 10
-63.438333253868308
 20
73.919709043200044
 11
-63.554096147868307
 21
73.919709043200044
  0
LINE
  8
_1-8_小物
  6
CONTINUOUS
 62
    4
 10
-63.438333253868308
 20
73.774437413199905
 11
-63.438333253868308
 21
73.919709043200044
  0
LINE
  8
_1-8_小物
  6
CONTINUOUS
 62
    4
 10
-63.228333253868271
 20
73.774437413199905
 11
-63.333333253868403
 21
73.776139138000019
  0
LINE
  8
_1-8_小物
  6
CONTINUOUS
 62
    4
 10
-63.333333253868403
 20
73.776139138000019
 11
-63.438333253868308
 21
73.774437413199905
  0
LINE
  8
_1-8_小物
  6
CONTINUOUS
 62
    4
 10
-61.86963751513494
 20
73.24829293833335
 11
-64.797028992634949
 21
73.24829293833335
  0
LINE
  8
_1-8_小物
  6
CONTINUOUS
 62
    4
 10
-63.333333253868403
 20
73.481801815566712
 11
-64.668570299035053
 21
73.481801815566712
  0
LINE
  8
_1-8_小物
  6
CONTINUOUS
 62
    4
 10
-61.998096208734836
 20
73.481801815566712
 11
-63.333333253868403
 21
73.481801815566712
  0
ENDBLK
  0
BLOCK
  2
-024-_24_
 70
   64
 10
0
 20
0
 30
0
  0
LINE
  8
_1-8_小物
  6
CONTINUOUS
 62
    4
 10
76.833333333332178
 20
80.166666666666316
 11
76.833333333332178
 21
86.166666666666629
  0
LINE
  8
_1-8_小物
  6
CONTINUOUS
 62
    4
 10
76.333333333332178
 20
80.166666666666316
 11
76.333333333332178
 21
86.166666666666629
  0
LINE
  8
_1-8_小物
  6
CONTINUOUS
 62
    4
 10
76.833333333332178
 20
80.166666666666316
 11
76.333333333332178
 21
80.166666666666316
  0
LINE
  8
_1-8_小物
  6
CONTINUOUS
 62
    4
 10
76.833333333332178
 20
86.166666666666629
 11
76.333333333332178
 21
86.166666666666629
  0
LINE
  8
_1-8_小物
  6
CONTINUOUS
 62
    4
 10
76.833333333332178
 20
81.666666666666316
 11
77.248292938332213
 21
81.702970927933166
  0
LINE
  8
_1-8_小物
  6
CONTINUOUS
 62
    4
 10
77.248292938332213
 20
84.630362405433175
 11
76.833333333332178
 21
84.666666666666316
  0
ARC
  8
_1-8_小物
  6
CONTINUOUS
 62
    4
 10
77.219531543232108
 20
84.301618155033452
 40
0.3299999999999999
 50
37.367558032050525
 51
85.000000001203631
  0
ARC
  8
_1-8_小物
  6
CONTINUOUS
 62
    4
 10
77.219531543232108
 20
82.031715178299805
 40
0.3299999999999999
 50
274.99999999879594
 51
322.63244196794557
  0
ARC
  8
_1-8_小物
  6
CONTINUOUS
 62
    4
 10
75.733333333332155
 20
83.166666666666629
 40
2.1999999999999997
 50
322.63244196770438
 51
338.26638354339775
  0
ARC
  8
_1-8_小物
  6
CONTINUOUS
 62
    4
 10
75.733333333332155
 20
83.166666666666629
 40
2.1999999999999997
 50
21.74840859090288
 51
37.367558032305141
  0
LINE
  8
_1-8_小物
  6
CONTINUOUS
 62
    4
 10
77.919709043198907
 20
83.061666666666497
 11
77.774437413198768
 21
83.061666666666497
  0
LINE
  8
_1-8_小物
  6
CONTINUOUS
 62
    4
 10
77.919709043198907
 20
82.945903772699495
 11
77.919709043198907
 21
83.061666666666497
  0
LINE
  8
_1-8_小物
  6
CONTINUOUS
 62
    4
 10
77.774437413198768
 20
82.352498910499889
 11
77.919709043198907
 21
82.945903772699495
  0
LINE
  8
_1-8_小物
  6
CONTINUOUS
 62
    4
 10
77.919709043198907
 20
83.387429560666533
 11
77.831230436065596
 21
83.820732983233285
  0
LINE
  8
_1-8_小物
  6
CONTINUOUS
 62
    4
 10
77.831230436065596
 20
83.820732983233285
 11
77.774437413198768
 21
83.980834422866138
  0
LINE
  8
_1-8_小物
  6
CONTINUOUS
 62
    4
 10
77.919709043198907
 20
83.271666666666533
 11
77.919709043198907
 21
83.387429560666533
  0
LINE
  8
_1-8_小物
  6
CONTINUOUS
 62
    4
 10
77.774437413198768
 20
83.271666666666533
 11
77.919709043198907
 21
83.271666666666533
  0
LINE
  8
_1-8_小物
  6
CONTINUOUS
 62
    4
 10
77.774437413198768
 20
83.061666666666497
 11
77.776139137998882
 21
83.166666666666629
  0
LINE
  8
_1-8_小物
  6
CONTINUOUS
 62
    4
 10
77.776139137998882
 20
83.166666666666629
 11
77.774437413198768
 21
83.271666666666533
  0
LINE
  8
_1-8_小物
  6
CONTINUOUS
 62
    4
 10
77.248292938332213
 20
81.702970927933166
 11
77.248292938332213
 21
84.630362405433175
  0
LINE
  8
_1-8_小物
  6
CONTINUOUS
 62
    4
 10
77.481801815565575
 20
83.166666666666629
 11
77.481801815565575
 21
84.501903711833279
  0
LINE
  8
_1-8_小物
  6
CONTINUOUS
 62
    4
 10
77.481801815565575
 20
81.831429621533061
 11
77.481801815565575
 21
83.166666666666629
  0
ENDBLK
  0
BLOCK
  2
-025-_25_
 70
   64
 10
0
 20
0
 30
0
  0
LINE
  8
_1-8_小物
  6
CONTINUOUS
 62
    4
 10
-128.33333333333329
 20
75.000000000000057
 11
-128.86666633333328
 21
75.307920000000109
  0
LINE
  8
_1-8_小物
  6
CONTINUOUS
 62
    4
 10
-128.33333333333329
 20
75.000000000000057
 11
-127.79999999999983
 21
75.307920000000109
  0
ARC
  8
_1-8_小物
  6
CONTINUOUS
 62
    4
 10
-128.33333333333329
 20
79.30555566666672
 40
2.0277776666666663
 50
53.831357999998787
 51
126.16864200000187
  0
ARC
  8
_1-8_小物
  6
CONTINUOUS
 62
    4
 10
-127.33333333333329
 20
80.673452333333358
 40
0.3333333333333333
 50
0
 51
53.831357999956829
  0
ARC
  8
_1-8_小物
  6
CONTINUOUS
 62
    4
 10
-129.33333333333329
 20
80.673452333333358
 40
0.3333333333333333
 50
126.16864199999722
 51
180
  0
LINE
  8
_1-8_小物
  6
CONTINUOUS
 62
    4
 10
-130.33333333333329
 20
80.083333333333314
 11
-130.33333333333329
 21
79.8333333333334
  0
ARC
  8
_1-8_小物
  6
CONTINUOUS
 62
    4
 10
-129.76609333333298
 20
79.666669333333545
 40
0.6666666666666666
 50
90
 51
124.99999999997675
  0
LINE
  8
_1-8_小物
  6
CONTINUOUS
 62
    4
 10
-130.33333333333329
 20
80.083333333333314
 11
-130.14847766666628
 21
80.212770666666898
  0
LINE
  8
_1-8_小物
  6
CONTINUOUS
 62
    4
 10
-130.33333333333329
 20
80.083333333333314
 11
-126.33333333333329
 21
80.083333333333314
  0
LINE
  8
_1-8_小物
  6
CONTINUOUS
 62
    4
 10
-130.33333333333329
 20
79.8333333333334
 11
-126.33333333333329
 21
79.8333333333334
  0
LINE
  8
_1-8_小物
  6
CONTINUOUS
 62
    4
 10
-126.33333333333329
 20
80.083333333333314
 11
-126.33333333333329
 21
79.8333333333334
  0
LINE
  8
_1-8_小物
  6
CONTINUOUS
 62
    4
 10
-129.99999999999994
 20
79.8333333333334
 11
-129.99999999999994
 21
79.500000000000057
  0
LINE
  8
_1-8_小物
  6
CONTINUOUS
 62
    4
 10
-126.66666666666661
 20
79.8333333333334
 11
-126.66666666666661
 21
79.500000000000057
  0
LINE
  8
_1-8_小物
  6
CONTINUOUS
 62
    4
 10
-128.33333333333329
 20
77.0329440000001
 11
-127.79999999999983
 21
77.048603999999983
  0
LINE
  8
_1-8_小物
  6
CONTINUOUS
 62
    4
 10
-128.33333333333329
 20
77.0329440000001
 11
-127.79999999999983
 21
77.330864333333381
  0
LINE
  8
_1-8_小物
  6
CONTINUOUS
 62
    4
 10
-128.86666666666645
 20
77.989344666666739
 11
-128.86666666666645
 21
77.644444333333297
  0
LINE
  8
_1-8_小物
  6
CONTINUOUS
 62
    4
 10
-128.86666666666645
 20
77.362184333333431
 11
-128.86666666666645
 21
75.307920000000109
  0
LINE
  8
_1-8_小物
  6
CONTINUOUS
 62
    4
 10
-127.79999999999983
 20
78.302925000000016
 11
-127.79999999999983
 21
77.958024666666688
  0
LINE
  8
_1-8_小物
  6
CONTINUOUS
 62
    4
 10
-127.79999999999983
 20
77.675764666666652
 11
-127.79999999999983
 21
77.330864333333381
  0
LINE
  8
_1-8_小物
  6
CONTINUOUS
 62
    4
 10
-127.79999999999983
 20
77.048603999999983
 11
-127.79999999999983
 21
75.307920000000109
  0
LINE
  8
_1-8_小物
  6
CONTINUOUS
 62
    4
 10
-128.86666666666645
 20
77.989344666666739
 11
-127.79999999999983
 21
78.302925000000016
  0
LINE
  8
_1-8_小物
  6
CONTINUOUS
 62
    4
 10
-129.11111099999982
 20
78.13047499999999
 11
-128.86666666666645
 21
77.989344666666739
  0
LINE
  8
_1-8_小物
  6
CONTINUOUS
 62
    4
 10
-129.11111099999982
 20
78.13047499999999
 11
-128.86666666666645
 21
78.271604999999965
  0
LINE
  8
_1-8_小物
  6
CONTINUOUS
 62
    4
 10
-129.66666666666663
 20
80.673452333333358
 11
-129.66666666666663
 21
80.3333333333334
  0
ARC
  8
_1-8_小物
  6
CONTINUOUS
 62
    4
 10
-126.90063900000006
 20
79.666715333333286
 40
0.6666666666666666
 50
54.999999999989633
 51
90
  0
LINE
  8
_1-8_小物
  6
CONTINUOUS
 62
    4
 10
-129.76609333333298
 20
80.333335999999974
 11
-126.90063900000006
 21
80.333382000000029
  0
LINE
  8
_1-8_小物
  6
CONTINUOUS
 62
    4
 10
-126.99999999999994
 20
80.673452333333358
 11
-126.99999999999994
 21
80.3333333333334
  0
LINE
  8
_1-8_小物
  6
CONTINUOUS
 62
    4
 10
-128.33333333333329
 20
75.67874699999993
 11
-128.33333333333329
 21
75.000000000000057
  0
LINE
  8
_1-8_小物
  6
CONTINUOUS
 62
    4
 10
-127.79999999999983
 20
76.866666666666703
 11
-128.86666166666626
 21
76.866666666666703
  0
ARC
  8
_1-8_小物
  6
CONTINUOUS
 62
    4
 10
-128.32498066666625
 20
75.078443333333382
 40
0.5882826666666666
 50
90.81354300003899
 51
157.0408750000027
  0
ARC
  8
_1-8_小物
  6
CONTINUOUS
 62
    4
 10
-126.32252933333312
 20
75.491494666666682
 40
2.0184196666666665
 50
137.05379999998766
 51
175.02122199999758
  0
LINE
  8
_1-8_小物
  6
CONTINUOUS
 62
    4
 10
-128.86666666666645
 20
77.362184333333431
 11
-127.79999999999983
 21
77.675764666666652
  0
LINE
  8
_1-8_小物
  6
CONTINUOUS
 62
    4
 10
-128.86666666666645
 20
77.644444333333297
 11
-127.79999999999983
 21
77.958024666666688
  0
LINE
  8
_1-8_小物
  6
CONTINUOUS
 62
    4
 10
-129.11111099999982
 20
77.503314333333407
 11
-127.55555566666645
 21
77.816894666666713
  0
LINE
  8
_1-8_小物
  6
CONTINUOUS
 62
    4
 10
-129.11111099999982
 20
77.503314333333407
 11
-128.86666666666645
 21
77.362184333333431
  0
LINE
  8
_1-8_小物
  6
CONTINUOUS
 62
    4
 10
-129.11111099999982
 20
77.503314333333407
 11
-128.86666666666645
 21
77.644444333333297
  0
LINE
  8
_1-8_小物
  6
CONTINUOUS
 62
    4
 10
-127.55555566666645
 20
77.816894666666713
 11
-127.79999999999983
 21
77.675764666666652
  0
LINE
  8
_1-8_小物
  6
CONTINUOUS
 62
    4
 10
-127.79999999999983
 20
77.958024666666688
 11
-127.55555566666645
 21
77.816894666666713
  0
LINE
  8
_1-8_小物
  6
CONTINUOUS
 62
    4
 10
-128.33333333333329
 20
77.0329440000001
 11
-127.55555566666645
 21
77.189734000000101
  0
LINE
  8
_1-8_小物
  6
CONTINUOUS
 62
    4
 10
-127.55555566666645
 20
77.189734000000101
 11
-127.79999999999983
 21
77.048603999999983
  0
LINE
  8
_1-8_小物
  6
CONTINUOUS
 62
    4
 10
-127.79999999999983
 20
77.330864333333381
 11
-127.55555566666645
 21
77.189734000000101
  0
LINE
  8
_1-8_小物
  6
CONTINUOUS
 62
    4
 10
-126.33333333333329
 20
80.083333333333314
 11
-126.51825466666615
 21
80.212816666666697
  0
LINE
  8
_1-8_小物
  6
CONTINUOUS
 62
    4
 10
-128.86666666666645
 20
78.3333333333334
 11
-128.86666666666645
 21
78.271604999999965
  0
LINE
  8
_1-8_小物
  6
CONTINUOUS
 62
    4
 10
-128.86666666666645
 20
78.271604999999965
 11
-128.65669318122639
 21
78.3333333333334
  0
LINE
  8
_1-8_小物
  6
CONTINUOUS
 62
    4
 10
-129.11111099999982
 20
78.13047499999999
 11
-128.10480523328073
 21
78.3333333333334
  0
LINE
  8
_1-8_小物
  6
CONTINUOUS
 62
    4
 10
-127.74733122107646
 20
78.3333333333334
 11
-127.79999999999983
 21
78.302925000000016
  0
LINE
  8
_1-8_小物
  6
CONTINUOUS
 62
    4
 10
-127.79999999999983
 20
78.585185333333413
 11
-127.79999999999983
 21
78.93008566666677
  0
LINE
  8
_1-8_小物
  6
CONTINUOUS
 62
    4
 10
-127.79999999999983
 20
78.585185333333413
 11
-127.55555566666645
 21
78.444054999999992
  0
LINE
  8
_1-8_小物
  6
CONTINUOUS
 62
    4
 10
-128.86666666666645
 20
79.243665666666686
 11
-128.86666666666645
 21
78.898765333333415
  0
LINE
  8
_1-8_小物
  6
CONTINUOUS
 62
    4
 10
-127.79999999999983
 20
79.500000000000057
 11
-127.79999999999983
 21
79.212345666666721
  0
LINE
  8
_1-8_小物
  6
CONTINUOUS
 62
    4
 10
-128.86666666666645
 20
78.616505333333237
 11
-127.79999999999983
 21
78.93008566666677
  0
LINE
  8
_1-8_小物
  6
CONTINUOUS
 62
    4
 10
-128.86666666666645
 20
78.898765333333415
 11
-127.79999999999983
 21
79.212345666666721
  0
LINE
  8
_1-8_小物
  6
CONTINUOUS
 62
    4
 10
-129.11111099999982
 20
78.75763533333344
 11
-127.55555566666645
 21
79.07121566666666
  0
LINE
  8
_1-8_小物
  6
CONTINUOUS
 62
    4
 10
-129.11111099999982
 20
78.75763533333344
 11
-128.86666666666645
 21
78.616505333333237
  0
LINE
  8
_1-8_小物
  6
CONTINUOUS
 62
    4
 10
-129.11111099999982
 20
78.75763533333344
 11
-128.86666666666645
 21
78.898765333333415
  0
LINE
  8
_1-8_小物
  6
CONTINUOUS
 62
    4
 10
-127.55555566666645
 20
79.07121566666666
 11
-127.79999999999983
 21
78.93008566666677
  0
LINE
  8
_1-8_小物
  6
CONTINUOUS
 62
    4
 10
-127.79999999999983
 20
79.212345666666721
 11
-127.55555566666645
 21
79.07121566666666
  0
LINE
  8
_1-8_小物
  6
CONTINUOUS
 62
    4
 10
-127.99472666666644
 20
79.500000000000057
 11
-128.86666666666645
 21
79.243665666666686
  0
LINE
  8
_1-8_小物
  6
CONTINUOUS
 62
    4
 10
-128.53962599999971
 20
79.500000000000057
 11
-129.11111099999982
 21
79.384796000000193
  0
LINE
  8
_1-8_小物
  6
CONTINUOUS
 62
    4
 10
-129.11111099999982
 20
79.384796000000193
 11
-128.86666666666645
 21
79.243665666666686
  0
LINE
  8
_1-8_小物
  6
CONTINUOUS
 62
    4
 10
-128.91157166666619
 20
79.500000000000057
 11
-129.11111099999982
 21
79.384796000000193
  0
LINE
  8
_1-8_小物
  6
CONTINUOUS
 62
    4
 10
-128.86666666666645
 20
78.616505333333237
 11
-128.86666666666645
 21
78.3333333333334
  0
LINE
  8
_1-8_小物
  6
CONTINUOUS
 62
    4
 10
-128.65669318122639
 20
78.3333333333334
 11
-127.79999999999983
 21
78.585185333333413
  0
LINE
  8
_1-8_小物
  6
CONTINUOUS
 62
    4
 10
-128.10480523328073
 20
78.3333333333334
 11
-127.55555566666645
 21
78.444054999999992
  0
LINE
  8
_1-8_小物
  6
CONTINUOUS
 62
    4
 10
-127.55555566666645
 20
78.444054999999992
 11
-127.74733122107646
 21
78.3333333333334
  0
LINE
  8
_1-8_小物
  6
CONTINUOUS
 62
    4
 10
-129.99999999999994
 20
79.500000000000057
 11
-126.66666666666661
 21
79.500000000000057
  0
ENDBLK
  0
BLOCK
  2
-026-_26_
 70
   64
 10
0
 20
0
 30
0
  0
LINE
  8
_1-8_小物
  6
CONTINUOUS
 62
    4
 10
-71.666666666666771
 20
75.000000000000057
 11
-72.19999966666677
 21
75.307920000000109
  0
LINE
  8
_1-8_小物
  6
CONTINUOUS
 62
    4
 10
-71.666666666666771
 20
75.000000000000057
 11
-71.133333333333326
 21
75.307920000000109
  0
ARC
  8
_1-8_小物
  6
CONTINUOUS
 62
    4
 10
-71.666666666666771
 20
79.30555566666672
 40
2.0277776666666663
 50
53.831357999998787
 51
126.16864200000121
  0
ARC
  8
_1-8_小物
  6
CONTINUOUS
 62
    4
 10
-70.666666666666771
 20
80.673452333333358
 40
0.3333333333333333
 50
0
 51
53.831357999956829
  0
ARC
  8
_1-8_小物
  6
CONTINUOUS
 62
    4
 10
-72.666666666666771
 20
80.673452333333358
 40
0.3333333333333333
 50
126.16864199999722
 51
180
  0
LINE
  8
_1-8_小物
  6
CONTINUOUS
 62
    4
 10
-73.666666666666771
 20
80.083333333333314
 11
-73.666666666666771
 21
79.8333333333334
  0
ARC
  8
_1-8_小物
  6
CONTINUOUS
 62
    4
 10
-73.09942666666646
 20
79.666669333333545
 40
0.6666666666666666
 50
90
 51
124.99999999997675
  0
LINE
  8
_1-8_小物
  6
CONTINUOUS
 62
    4
 10
-73.666666666666771
 20
80.083333333333314
 11
-73.481810999999766
 21
80.212770666666898
  0
LINE
  8
_1-8_小物
  6
CONTINUOUS
 62
    4
 10
-73.666666666666771
 20
80.083333333333314
 11
-69.666666666666771
 21
80.083333333333314
  0
LINE
  8
_1-8_小物
  6
CONTINUOUS
 62
    4
 10
-73.666666666666771
 20
79.8333333333334
 11
-69.666666666666771
 21
79.8333333333334
  0
LINE
  8
_1-8_小物
  6
CONTINUOUS
 62
    4
 10
-69.666666666666771
 20
80.083333333333314
 11
-69.666666666666771
 21
79.8333333333334
  0
LINE
  8
_1-8_小物
  6
CONTINUOUS
 62
    4
 10
-73.333333333333428
 20
79.8333333333334
 11
-73.333333333333428
 21
79.500000000000057
  0
LINE
  8
_1-8_小物
  6
CONTINUOUS
 62
    4
 10
-70.000000000000114
 20
79.8333333333334
 11
-70.000000000000114
 21
79.500000000000057
  0
LINE
  8
_1-8_小物
  6
CONTINUOUS
 62
    4
 10
-71.666666666666771
 20
77.0329440000001
 11
-71.133333333333326
 21
77.048603999999983
  0
LINE
  8
_1-8_小物
  6
CONTINUOUS
 62
    4
 10
-71.666666666666771
 20
77.0329440000001
 11
-71.133333333333326
 21
77.330864333333381
  0
LINE
  8
_1-8_小物
  6
CONTINUOUS
 62
    4
 10
-72.199999999999932
 20
77.989344666666739
 11
-72.199999999999932
 21
77.644444333333297
  0
LINE
  8
_1-8_小物
  6
CONTINUOUS
 62
    4
 10
-72.199999999999932
 20
77.362184333333431
 11
-72.199999999999932
 21
75.307920000000109
  0
LINE
  8
_1-8_小物
  6
CONTINUOUS
 62
    4
 10
-71.133333333333326
 20
78.302925000000016
 11
-71.133333333333326
 21
77.958024666666688
  0
LINE
  8
_1-8_小物
  6
CONTINUOUS
 62
    4
 10
-71.133333333333326
 20
77.675764666666652
 11
-71.133333333333326
 21
77.330864333333381
  0
LINE
  8
_1-8_小物
  6
CONTINUOUS
 62
    4
 10
-71.133333333333326
 20
77.048603999999983
 11
-71.133333333333326
 21
75.307920000000109
  0
LINE
  8
_1-8_小物
  6
CONTINUOUS
 62
    4
 10
-72.199999999999932
 20
77.989344666666739
 11
-71.133333333333326
 21
78.302925000000016
  0
LINE
  8
_1-8_小物
  6
CONTINUOUS
 62
    4
 10
-72.444444333333308
 20
78.13047499999999
 11
-72.199999999999932
 21
77.989344666666739
  0
LINE
  8
_1-8_小物
  6
CONTINUOUS
 62
    4
 10
-72.444444333333308
 20
78.13047499999999
 11
-72.199999999999932
 21
78.271604999999965
  0
LINE
  8
_1-8_小物
  6
CONTINUOUS
 62
    4
 10
-73.000000000000114
 20
80.673452333333358
 11
-73.000000000000114
 21
80.3333333333334
  0
ARC
  8
_1-8_小物
  6
CONTINUOUS
 62
    4
 10
-70.233972333333554
 20
79.666715333333286
 40
0.6666666666666666
 50
54.999999999990628
 51
90
  0
LINE
  8
_1-8_小物
  6
CONTINUOUS
 62
    4
 10
-73.09942666666646
 20
80.333335999999974
 11
-70.233972333333554
 21
80.333382000000029
  0
LINE
  8
_1-8_小物
  6
CONTINUOUS
 62
    4
 10
-70.333333333333428
 20
80.673452333333358
 11
-70.333333333333428
 21
80.3333333333334
  0
LINE
  8
_1-8_小物
  6
CONTINUOUS
 62
    4
 10
-71.666666666666771
 20
75.67874699999993
 11
-71.666666666666771
 21
75.000000000000057
  0
LINE
  8
_1-8_小物
  6
CONTINUOUS
 62
    4
 10
-71.133333333333326
 20
76.866666666666703
 11
-72.199994999999745
 21
76.866666666666703
  0
ARC
  8
_1-8_小物
  6
CONTINUOUS
 62
    4
 10
-71.658313999999734
 20
75.078443333333382
 40
0.5882826666666666
 50
90.81354300003899
 51
157.0408750000027
  0
ARC
  8
_1-8_小物
  6
CONTINUOUS
 62
    4
 10
-69.655862666666621
 20
75.491494666666682
 40
2.0184196666666665
 50
137.0537999999882
 51
175.02122199999761
  0
LINE
  8
_1-8_小物
  6
CONTINUOUS
 62
    4
 10
-72.199999999999932
 20
77.362184333333431
 11
-71.133333333333326
 21
77.675764666666652
  0
LINE
  8
_1-8_小物
  6
CONTINUOUS
 62
    4
 10
-72.199999999999932
 20
77.644444333333297
 11
-71.133333333333326
 21
77.958024666666688
  0
LINE
  8
_1-8_小物
  6
CONTINUOUS
 62
    4
 10
-72.444444333333308
 20
77.503314333333407
 11
-70.888888999999949
 21
77.816894666666713
  0
LINE
  8
_1-8_小物
  6
CONTINUOUS
 62
    4
 10
-72.444444333333308
 20
77.503314333333407
 11
-72.199999999999932
 21
77.362184333333431
  0
LINE
  8
_1-8_小物
  6
CONTINUOUS
 62
    4
 10
-72.444444333333308
 20
77.503314333333407
 11
-72.199999999999932
 21
77.644444333333297
  0
LINE
  8
_1-8_小物
  6
CONTINUOUS
 62
    4
 10
-70.888888999999949
 20
77.816894666666713
 11
-71.133333333333326
 21
77.675764666666652
  0
LINE
  8
_1-8_小物
  6
CONTINUOUS
 62
    4
 10
-71.133333333333326
 20
77.958024666666688
 11
-70.888888999999949
 21
77.816894666666713
  0
LINE
  8
_1-8_小物
  6
CONTINUOUS
 62
    4
 10
-71.666666666666771
 20
77.0329440000001
 11
-70.888888999999949
 21
77.189734000000101
  0
LINE
  8
_1-8_小物
  6
CONTINUOUS
 62
    4
 10
-70.888888999999949
 20
77.189734000000101
 11
-71.133333333333326
 21
77.048603999999983
  0
LINE
  8
_1-8_小物
  6
CONTINUOUS
 62
    4
 10
-71.133333333333326
 20
77.330864333333381
 11
-70.888888999999949
 21
77.189734000000101
  0
LINE
  8
_1-8_小物
  6
CONTINUOUS
 62
    4
 10
-69.666666666666771
 20
80.083333333333314
 11
-69.851587999999651
 21
80.212816666666697
  0
LINE
  8
_1-8_小物
  6
CONTINUOUS
 62
    4
 10
-72.199999999999932
 20
78.3333333333334
 11
-72.199999999999932
 21
78.271604999999965
  0
LINE
  8
_1-8_小物
  6
CONTINUOUS
 62
    4
 10
-72.199999999999932
 20
78.271604999999965
 11
-71.990026514559872
 21
78.3333333333334
  0
LINE
  8
_1-8_小物
  6
CONTINUOUS
 62
    4
 10
-72.444444333333308
 20
78.13047499999999
 11
-71.438138566614214
 21
78.3333333333334
  0
LINE
  8
_1-8_小物
  6
CONTINUOUS
 62
    4
 10
-71.080664554409964
 20
78.3333333333334
 11
-71.133333333333326
 21
78.302925000000016
  0
LINE
  8
_1-8_小物
  6
CONTINUOUS
 62
    4
 10
-71.133333333333326
 20
78.585185333333413
 11
-71.133333333333326
 21
78.93008566666677
  0
LINE
  8
_1-8_小物
  6
CONTINUOUS
 62
    4
 10
-71.133333333333326
 20
78.585185333333413
 11
-70.888888999999949
 21
78.444054999999992
  0
LINE
  8
_1-8_小物
  6
CONTINUOUS
 62
    4
 10
-72.199999999999932
 20
79.243665666666686
 11
-72.199999999999932
 21
78.898765333333415
  0
LINE
  8
_1-8_小物
  6
CONTINUOUS
 62
    4
 10
-71.133333333333326
 20
79.500000000000057
 11
-71.133333333333326
 21
79.212345666666721
  0
LINE
  8
_1-8_小物
  6
CONTINUOUS
 62
    4
 10
-72.199999999999932
 20
78.616505333333237
 11
-71.133333333333326
 21
78.93008566666677
  0
LINE
  8
_1-8_小物
  6
CONTINUOUS
 62
    4
 10
-72.199999999999932
 20
78.898765333333415
 11
-71.133333333333326
 21
79.212345666666721
  0
LINE
  8
_1-8_小物
  6
CONTINUOUS
 62
    4
 10
-72.444444333333308
 20
78.75763533333344
 11
-70.888888999999949
 21
79.07121566666666
  0
LINE
  8
_1-8_小物
  6
CONTINUOUS
 62
    4
 10
-72.444444333333308
 20
78.75763533333344
 11
-72.199999999999932
 21
78.616505333333237
  0
LINE
  8
_1-8_小物
  6
CONTINUOUS
 62
    4
 10
-72.444444333333308
 20
78.75763533333344
 11
-72.199999999999932
 21
78.898765333333415
  0
LINE
  8
_1-8_小物
  6
CONTINUOUS
 62
    4
 10
-70.888888999999949
 20
79.07121566666666
 11
-71.133333333333326
 21
78.93008566666677
  0
LINE
  8
_1-8_小物
  6
CONTINUOUS
 62
    4
 10
-71.133333333333326
 20
79.212345666666721
 11
-70.888888999999949
 21
79.07121566666666
  0
LINE
  8
_1-8_小物
  6
CONTINUOUS
 62
    4
 10
-71.328059999999937
 20
79.500000000000057
 11
-72.199999999999932
 21
79.243665666666686
  0
LINE
  8
_1-8_小物
  6
CONTINUOUS
 62
    4
 10
-71.872959333333199
 20
79.500000000000057
 11
-72.444444333333308
 21
79.384796000000193
  0
LINE
  8
_1-8_小物
  6
CONTINUOUS
 62
    4
 10
-72.444444333333308
 20
79.384796000000193
 11
-72.199999999999932
 21
79.243665666666686
  0
LINE
  8
_1-8_小物
  6
CONTINUOUS
 62
    4
 10
-72.244904999999676
 20
79.500000000000057
 11
-72.444444333333308
 21
79.384796000000193
  0
LINE
  8
_1-8_小物
  6
CONTINUOUS
 62
    4
 10
-72.199999999999932
 20
78.616505333333237
 11
-72.199999999999932
 21
78.3333333333334
  0
LINE
  8
_1-8_小物
  6
CONTINUOUS
 62
    4
 10
-71.990026514559872
 20
78.3333333333334
 11
-71.133333333333326
 21
78.585185333333413
  0
LINE
  8
_1-8_小物
  6
CONTINUOUS
 62
    4
 10
-71.438138566614214
 20
78.3333333333334
 11
-70.888888999999949
 21
78.444054999999992
  0
LINE
  8
_1-8_小物
  6
CONTINUOUS
 62
    4
 10
-70.888888999999949
 20
78.444054999999992
 11
-71.080664554409964
 21
78.3333333333334
  0
LINE
  8
_1-8_小物
  6
CONTINUOUS
 62
    4
 10
-73.333333333333428
 20
79.500000000000057
 11
-70.000000000000114
 21
79.500000000000057
  0
ENDBLK
  0
BLOCK
  2
-027-_27_
 70
   64
 10
0
 20
0
 30
0
  0
LINE
  8
_1-8_小物
  6
CONTINUOUS
 62
    4
 10
128.33333334064918
 20
74.999999999999943
 11
127.80000034064915
 21
75.307919999999996
  0
LINE
  8
_1-8_小物
  6
CONTINUOUS
 62
    4
 10
128.33333334064918
 20
74.999999999999943
 11
128.86666667398265
 21
75.307919999999996
  0
ARC
  8
_1-8_小物
  6
CONTINUOUS
 62
    4
 10
128.33333334064918
 20
79.305555666666606
 40
2.0277776666666663
 50
53.831357999997486
 51
126.16864199999945
  0
ARC
  8
_1-8_小物
  6
CONTINUOUS
 62
    4
 10
129.33333334064918
 20
80.673452333333245
 40
0.3333333333333333
 50
0
 51
53.831357999952886
  0
ARC
  8
_1-8_小物
  6
CONTINUOUS
 62
    4
 10
127.33333334064918
 20
80.673452333333245
 40
0.3333333333333333
 50
126.16864200000116
 51
180
  0
LINE
  8
_1-8_小物
  6
CONTINUOUS
 62
    4
 10
126.33333334064918
 20
80.083333333333201
 11
126.33333334064918
 21
79.833333333333286
  0
ARC
  8
_1-8_小物
  6
CONTINUOUS
 62
    4
 10
126.90057334064949
 20
79.666669333333431
 40
0.6666666666666666
 50
90
 51
124.99999999997475
  0
LINE
  8
_1-8_小物
  6
CONTINUOUS
 62
    4
 10
126.33333334064918
 20
80.083333333333201
 11
126.51818900731621
 21
80.212770666666785
  0
LINE
  8
_1-8_小物
  6
CONTINUOUS
 62
    4
 10
126.33333334064918
 20
80.083333333333201
 11
130.33333334064918
 21
80.083333333333201
  0
LINE
  8
_1-8_小物
  6
CONTINUOUS
 62
    4
 10
126.33333334064918
 20
79.833333333333286
 11
130.33333334064918
 21
79.833333333333286
  0
LINE
  8
_1-8_小物
  6
CONTINUOUS
 62
    4
 10
130.33333334064918
 20
80.083333333333201
 11
130.33333334064918
 21
79.833333333333286
  0
LINE
  8
_1-8_小物
  6
CONTINUOUS
 62
    4
 10
126.66666667398249
 20
79.833333333333286
 11
126.66666667398249
 21
79.499999999999943
  0
LINE
  8
_1-8_小物
  6
CONTINUOUS
 62
    4
 10
130.00000000731586
 20
79.833333333333286
 11
130.00000000731586
 21
79.499999999999943
  0
LINE
  8
_1-8_小物
  6
CONTINUOUS
 62
    4
 10
128.33333334064918
 20
77.032943999999986
 11
128.86666667398265
 21
77.04860399999987
  0
LINE
  8
_1-8_小物
  6
CONTINUOUS
 62
    4
 10
128.33333334064918
 20
77.032943999999986
 11
128.86666667398265
 21
77.330864333333267
  0
LINE
  8
_1-8_小物
  6
CONTINUOUS
 62
    4
 10
127.80000000731604
 20
77.989344666666625
 11
127.80000000731604
 21
77.644444333333183
  0
LINE
  8
_1-8_小物
  6
CONTINUOUS
 62
    4
 10
127.80000000731604
 20
77.362184333333317
 11
127.80000000731604
 21
75.307919999999996
  0
LINE
  8
_1-8_小物
  6
CONTINUOUS
 62
    4
 10
128.86666667398265
 20
78.302924999999902
 11
128.86666667398265
 21
77.958024666666574
  0
LINE
  8
_1-8_小物
  6
CONTINUOUS
 62
    4
 10
128.86666667398265
 20
77.675764666666538
 11
128.86666667398265
 21
77.330864333333267
  0
LINE
  8
_1-8_小物
  6
CONTINUOUS
 62
    4
 10
128.86666667398265
 20
77.04860399999987
 11
128.86666667398265
 21
75.307919999999996
  0
LINE
  8
_1-8_小物
  6
CONTINUOUS
 62
    4
 10
127.80000000731604
 20
77.989344666666625
 11
128.86666667398265
 21
78.302924999999902
  0
LINE
  8
_1-8_小物
  6
CONTINUOUS
 62
    4
 10
127.55555567398267
 20
78.130474999999876
 11
127.80000000731604
 21
77.989344666666625
  0
LINE
  8
_1-8_小物
  6
CONTINUOUS
 62
    4
 10
127.55555567398267
 20
78.130474999999876
 11
127.80000000731604
 21
78.271604999999852
  0
LINE
  8
_1-8_小物
  6
CONTINUOUS
 62
    4
 10
127.00000000731586
 20
80.673452333333245
 11
127.00000000731586
 21
80.333333333333286
  0
ARC
  8
_1-8_小物
  6
CONTINUOUS
 62
    4
 10
129.76602767398242
 20
79.666715333333173
 40
0.6666666666666666
 50
54.999999999992632
 51
90
  0
LINE
  8
_1-8_小物
  6
CONTINUOUS
 62
    4
 10
126.90057334064949
 20
80.333335999999861
 11
129.76602767398242
 21
80.333381999999915
  0
LINE
  8
_1-8_小物
  6
CONTINUOUS
 62
    4
 10
129.66666667398249
 20
80.673452333333245
 11
129.66666667398249
 21
80.333333333333286
  0
LINE
  8
_1-8_小物
  6
CONTINUOUS
 62
    4
 10
128.33333334064918
 20
75.678746999999817
 11
128.33333334064918
 21
74.999999999999943
  0
LINE
  8
_1-8_小物
  6
CONTINUOUS
 62
    4
 10
128.86666667398265
 20
76.866666666666589
 11
127.8000050073162
 21
76.866666666666589
  0
ARC
  8
_1-8_小物
  6
CONTINUOUS
 62
    4
 10
128.34168600731618
 20
75.078443333333269
 40
0.5882826666666666
 50
90.81354300003899
 51
157.0408750000027
  0
ARC
  8
_1-8_小物
  6
CONTINUOUS
 62
    4
 10
130.34413734064935
 20
75.491494666666568
 40
2.0184196666666665
 50
137.0537999999882
 51
175.02122199999769
  0
LINE
  8
_1-8_小物
  6
CONTINUOUS
 62
    4
 10
127.80000000731604
 20
77.362184333333317
 11
128.86666667398265
 21
77.675764666666538
  0
LINE
  8
_1-8_小物
  6
CONTINUOUS
 62
    4
 10
127.80000000731604
 20
77.644444333333183
 11
128.86666667398265
 21
77.958024666666574
  0
LINE
  8
_1-8_小物
  6
CONTINUOUS
 62
    4
 10
127.55555567398267
 20
77.503314333333293
 11
129.11111100731603
 21
77.816894666666599
  0
LINE
  8
_1-8_小物
  6
CONTINUOUS
 62
    4
 10
127.55555567398267
 20
77.503314333333293
 11
127.80000000731604
 21
77.362184333333317
  0
LINE
  8
_1-8_小物
  6
CONTINUOUS
 62
    4
 10
127.55555567398267
 20
77.503314333333293
 11
127.80000000731604
 21
77.644444333333183
  0
LINE
  8
_1-8_小物
  6
CONTINUOUS
 62
    4
 10
129.11111100731603
 20
77.816894666666599
 11
128.86666667398265
 21
77.675764666666538
  0
LINE
  8
_1-8_小物
  6
CONTINUOUS
 62
    4
 10
128.86666667398265
 20
77.958024666666574
 11
129.11111100731603
 21
77.816894666666599
  0
LINE
  8
_1-8_小物
  6
CONTINUOUS
 62
    4
 10
128.33333334064918
 20
77.032943999999986
 11
129.11111100731603
 21
77.189733999999987
  0
LINE
  8
_1-8_小物
  6
CONTINUOUS
 62
    4
 10
129.11111100731603
 20
77.189733999999987
 11
128.86666667398265
 21
77.04860399999987
  0
LINE
  8
_1-8_小物
  6
CONTINUOUS
 62
    4
 10
128.86666667398265
 20
77.330864333333267
 11
129.11111100731603
 21
77.189733999999987
  0
LINE
  8
_1-8_小物
  6
CONTINUOUS
 62
    4
 10
130.33333334064918
 20
80.083333333333201
 11
130.14841200731632
 21
80.212816666666583
  0
LINE
  8
_1-8_小物
  6
CONTINUOUS
 62
    4
 10
127.80000000731604
 20
78.333333333333286
 11
127.80000000731604
 21
78.271604999999852
  0
LINE
  8
_1-8_小物
  6
CONTINUOUS
 62
    4
 10
127.80000000731604
 20
78.271604999999852
 11
128.0099734927561
 21
78.333333333333286
  0
LINE
  8
_1-8_小物
  6
CONTINUOUS
 62
    4
 10
127.55555567398267
 20
78.130474999999876
 11
128.5618614407017
 21
78.333333333333286
  0
LINE
  8
_1-8_小物
  6
CONTINUOUS
 62
    4
 10
128.91933545290601
 20
78.333333333333286
 11
128.86666667398265
 21
78.302924999999902
  0
LINE
  8
_1-8_小物
  6
CONTINUOUS
 62
    4
 10
128.86666667398265
 20
78.5851853333333
 11
128.86666667398265
 21
78.930085666666656
  0
LINE
  8
_1-8_小物
  6
CONTINUOUS
 62
    4
 10
128.86666667398265
 20
78.5851853333333
 11
129.11111100731603
 21
78.444054999999878
  0
LINE
  8
_1-8_小物
  6
CONTINUOUS
 62
    4
 10
127.80000000731604
 20
79.243665666666573
 11
127.80000000731604
 21
78.898765333333301
  0
LINE
  8
_1-8_小物
  6
CONTINUOUS
 62
    4
 10
128.86666667398265
 20
79.499999999999943
 11
128.86666667398265
 21
79.212345666666607
  0
LINE
  8
_1-8_小物
  6
CONTINUOUS
 62
    4
 10
127.80000000731604
 20
78.616505333333123
 11
128.86666667398265
 21
78.930085666666656
  0
LINE
  8
_1-8_小物
  6
CONTINUOUS
 62
    4
 10
127.80000000731604
 20
78.898765333333301
 11
128.86666667398265
 21
79.212345666666607
  0
LINE
  8
_1-8_小物
  6
CONTINUOUS
 62
    4
 10
127.55555567398267
 20
78.757635333333326
 11
129.11111100731603
 21
79.071215666666546
  0
LINE
  8
_1-8_小物
  6
CONTINUOUS
 62
    4
 10
127.55555567398267
 20
78.757635333333326
 11
127.80000000731604
 21
78.616505333333123
  0
LINE
  8
_1-8_小物
  6
CONTINUOUS
 62
    4
 10
127.55555567398267
 20
78.757635333333326
 11
127.80000000731604
 21
78.898765333333301
  0
LINE
  8
_1-8_小物
  6
CONTINUOUS
 62
    4
 10
129.11111100731603
 20
79.071215666666546
 11
128.86666667398265
 21
78.930085666666656
  0
LINE
  8
_1-8_小物
  6
CONTINUOUS
 62
    4
 10
128.86666667398265
 20
79.212345666666607
 11
129.11111100731603
 21
79.071215666666546
  0
LINE
  8
_1-8_小物
  6
CONTINUOUS
 62
    4
 10
128.67194000731604
 20
79.499999999999943
 11
127.80000000731604
 21
79.243665666666573
  0
LINE
  8
_1-8_小物
  6
CONTINUOUS
 62
    4
 10
128.12704067398272
 20
79.499999999999943
 11
127.55555567398267
 21
79.38479600000008
  0
LINE
  8
_1-8_小物
  6
CONTINUOUS
 62
    4
 10
127.55555567398267
 20
79.38479600000008
 11
127.80000000731604
 21
79.243665666666573
  0
LINE
  8
_1-8_小物
  6
CONTINUOUS
 62
    4
 10
127.7550950073163
 20
79.499999999999943
 11
127.55555567398267
 21
79.38479600000008
  0
LINE
  8
_1-8_小物
  6
CONTINUOUS
 62
    4
 10
127.80000000731604
 20
78.616505333333123
 11
127.80000000731604
 21
78.333333333333286
  0
LINE
  8
_1-8_小物
  6
CONTINUOUS
 62
    4
 10
128.0099734927561
 20
78.333333333333286
 11
128.86666667398265
 21
78.5851853333333
  0
LINE
  8
_1-8_小物
  6
CONTINUOUS
 62
    4
 10
128.5618614407017
 20
78.333333333333286
 11
129.11111100731603
 21
78.444054999999878
  0
LINE
  8
_1-8_小物
  6
CONTINUOUS
 62
    4
 10
129.11111100731603
 20
78.444054999999878
 11
128.91933545290601
 21
78.333333333333286
  0
LINE
  8
_1-8_小物
  6
CONTINUOUS
 62
    4
 10
126.66666667398249
 20
79.499999999999943
 11
130.00000000731586
 21
79.499999999999943
  0
ENDBLK
  0
BLOCK
  2
-028-_28_
 70
   64
 10
0
 20
0
 30
0
  0
LINE
  8
_1-8_小物
  6
CONTINUOUS
 62
    4
 10
91.333333340649347
 20
75
 11
90.800000340649262
 21
75.307920000000024
  0
LINE
  8
_1-8_小物
  6
CONTINUOUS
 62
    4
 10
91.333333340649347
 20
75
 11
91.866666673982763
 21
75.307920000000024
  0
ARC
  8
_1-8_小物
  6
CONTINUOUS
 62
    4
 10
91.333333340649347
 20
79.305555666666635
 40
2.0277776666666663
 50
53.831357999998787
 51
126.16864200000074
  0
ARC
  8
_1-8_小物
  6
CONTINUOUS
 62
    4
 10
92.333333340649347
 20
80.673452333333273
 40
0.3333333333333333
 50
0
 51
53.831357999960773
  0
ARC
  8
_1-8_小物
  6
CONTINUOUS
 62
    4
 10
90.333333340649347
 20
80.673452333333273
 40
0.3333333333333333
 50
126.16864200000116
 51
180
  0
LINE
  8
_1-8_小物
  6
CONTINUOUS
 62
    4
 10
89.333333340649347
 20
80.083333333333258
 11
89.333333340649347
 21
79.833333333333314
  0
ARC
  8
_1-8_小物
  6
CONTINUOUS
 62
    4
 10
89.900573340649657
 20
79.666669333333459
 40
0.6666666666666666
 50
90
 51
124.99999999997475
  0
LINE
  8
_1-8_小物
  6
CONTINUOUS
 62
    4
 10
89.333333340649347
 20
80.083333333333258
 11
89.518189007316323
 21
80.212770666666813
  0
LINE
  8
_1-8_小物
  6
CONTINUOUS
 62
    4
 10
89.333333340649347
 20
80.083333333333258
 11
93.333333340649347
 21
80.083333333333258
  0
LINE
  8
_1-8_小物
  6
CONTINUOUS
 62
    4
 10
89.333333340649347
 20
79.833333333333314
 11
93.333333340649347
 21
79.833333333333314
  0
LINE
  8
_1-8_小物
  6
CONTINUOUS
 62
    4
 10
93.333333340649347
 20
80.083333333333258
 11
93.333333340649347
 21
79.833333333333314
  0
LINE
  8
_1-8_小物
  6
CONTINUOUS
 62
    4
 10
89.666666673982604
 20
79.833333333333314
 11
89.666666673982604
 21
79.5
  0
LINE
  8
_1-8_小物
  6
CONTINUOUS
 62
    4
 10
93.000000007315975
 20
79.833333333333314
 11
93.000000007315975
 21
79.5
  0
LINE
  8
_1-8_小物
  6
CONTINUOUS
 62
    4
 10
91.333333340649347
 20
77.032944000000043
 11
91.866666673982763
 21
77.048603999999898
  0
LINE
  8
_1-8_小物
  6
CONTINUOUS
 62
    4
 10
91.333333340649347
 20
77.032944000000043
 11
91.866666673982763
 21
77.330864333333295
  0
LINE
  8
_1-8_小物
  6
CONTINUOUS
 62
    4
 10
90.800000007316157
 20
77.989344666666653
 11
90.800000007316157
 21
77.64444433333324
  0
LINE
  8
_1-8_小物
  6
CONTINUOUS
 62
    4
 10
90.800000007316157
 20
77.362184333333346
 11
90.800000007316157
 21
75.307920000000024
  0
LINE
  8
_1-8_小物
  6
CONTINUOUS
 62
    4
 10
91.866666673982763
 20
78.302924999999959
 11
91.866666673982763
 21
77.958024666666603
  0
LINE
  8
_1-8_小物
  6
CONTINUOUS
 62
    4
 10
91.866666673982763
 20
77.675764666666566
 11
91.866666673982763
 21
77.330864333333295
  0
LINE
  8
_1-8_小物
  6
CONTINUOUS
 62
    4
 10
91.866666673982763
 20
77.048603999999898
 11
91.866666673982763
 21
75.307920000000024
  0
LINE
  8
_1-8_小物
  6
CONTINUOUS
 62
    4
 10
90.800000007316157
 20
77.989344666666653
 11
91.866666673982763
 21
78.302924999999959
  0
LINE
  8
_1-8_小物
  6
CONTINUOUS
 62
    4
 10
90.555555673982781
 20
78.130474999999933
 11
90.800000007316157
 21
77.989344666666653
  0
LINE
  8
_1-8_小物
  6
CONTINUOUS
 62
    4
 10
90.555555673982781
 20
78.130474999999933
 11
90.800000007316157
 21
78.271604999999909
  0
LINE
  8
_1-8_小物
  6
CONTINUOUS
 62
    4
 10
90.000000007315975
 20
80.673452333333273
 11
90.000000007315975
 21
80.333333333333314
  0
ARC
  8
_1-8_小物
  6
CONTINUOUS
 62
    4
 10
92.766027673982535
 20
79.666715333333201
 40
0.6666666666666666
 50
54.999999999990031
 51
90
  0
LINE
  8
_1-8_小物
  6
CONTINUOUS
 62
    4
 10
89.900573340649657
 20
80.333335999999917
 11
92.766027673982535
 21
80.333381999999943
  0
LINE
  8
_1-8_小物
  6
CONTINUOUS
 62
    4
 10
92.666666673982604
 20
80.673452333333273
 11
92.666666673982604
 21
80.333333333333314
  0
LINE
  8
_1-8_小物
  6
CONTINUOUS
 62
    4
 10
91.333333340649347
 20
75.678746999999845
 11
91.333333340649347
 21
75
  0
LINE
  8
_1-8_小物
  6
CONTINUOUS
 62
    4
 10
91.866666673982763
 20
76.866666666666617
 11
90.800005007316372
 21
76.866666666666617
  0
ARC
  8
_1-8_小物
  6
CONTINUOUS
 62
    4
 10
91.341686007316298
 20
75.078443333333325
 40
0.5882826666666666
 50
90.813543000033505
 51
157.0408750000027
  0
ARC
  8
_1-8_小物
  6
CONTINUOUS
 62
    4
 10
93.344137340649468
 20
75.491494666666597
 40
2.0184196666666665
 50
137.0537999999882
 51
175.02122199999752
  0
LINE
  8
_1-8_小物
  6
CONTINUOUS
 62
    4
 10
90.800000007316157
 20
77.362184333333346
 11
91.866666673982763
 21
77.675764666666566
  0
LINE
  8
_1-8_小物
  6
CONTINUOUS
 62
    4
 10
90.800000007316157
 20
77.64444433333324
 11
91.866666673982763
 21
77.958024666666603
  0
LINE
  8
_1-8_小物
  6
CONTINUOUS
 62
    4
 10
90.555555673982781
 20
77.503314333333321
 11
92.11111100731614
 21
77.816894666666627
  0
LINE
  8
_1-8_小物
  6
CONTINUOUS
 62
    4
 10
90.555555673982781
 20
77.503314333333321
 11
90.800000007316157
 21
77.362184333333346
  0
LINE
  8
_1-8_小物
  6
CONTINUOUS
 62
    4
 10
90.555555673982781
 20
77.503314333333321
 11
90.800000007316157
 21
77.64444433333324
  0
LINE
  8
_1-8_小物
  6
CONTINUOUS
 62
    4
 10
92.11111100731614
 20
77.816894666666627
 11
91.866666673982763
 21
77.675764666666566
  0
LINE
  8
_1-8_小物
  6
CONTINUOUS
 62
    4
 10
91.866666673982763
 20
77.958024666666603
 11
92.11111100731614
 21
77.816894666666627
  0
LINE
  8
_1-8_小物
  6
CONTINUOUS
 62
    4
 10
91.333333340649347
 20
77.032944000000043
 11
92.11111100731614
 21
77.189734000000044
  0
LINE
  8
_1-8_小物
  6
CONTINUOUS
 62
    4
 10
92.11111100731614
 20
77.189734000000044
 11
91.866666673982763
 21
77.048603999999898
  0
LINE
  8
_1-8_小物
  6
CONTINUOUS
 62
    4
 10
91.866666673982763
 20
77.330864333333295
 11
92.11111100731614
 21
77.189734000000044
  0
LINE
  8
_1-8_小物
  6
CONTINUOUS
 62
    4
 10
93.333333340649347
 20
80.083333333333258
 11
93.148412007316438
 21
80.21281666666664
  0
LINE
  8
_1-8_小物
  6
CONTINUOUS
 62
    4
 10
90.800000007316157
 20
78.333333333333314
 11
90.800000007316157
 21
78.271604999999909
  0
LINE
  8
_1-8_小物
  6
CONTINUOUS
 62
    4
 10
90.800000007316157
 20
78.271604999999909
 11
91.009973492756217
 21
78.333333333333314
  0
LINE
  8
_1-8_小物
  6
CONTINUOUS
 62
    4
 10
90.555555673982781
 20
78.130474999999933
 11
91.561861440701819
 21
78.333333333333314
  0
LINE
  8
_1-8_小物
  6
CONTINUOUS
 62
    4
 10
91.919335452906125
 20
78.333333333333314
 11
91.866666673982763
 21
78.302924999999959
  0
LINE
  8
_1-8_小物
  6
CONTINUOUS
 62
    4
 10
91.866666673982763
 20
78.585185333333357
 11
91.866666673982763
 21
78.930085666666685
  0
LINE
  8
_1-8_小物
  6
CONTINUOUS
 62
    4
 10
91.866666673982763
 20
78.585185333333357
 11
92.11111100731614
 21
78.444054999999935
  0
LINE
  8
_1-8_小物
  6
CONTINUOUS
 62
    4
 10
90.800000007316157
 20
79.243665666666629
 11
90.800000007316157
 21
78.898765333333358
  0
LINE
  8
_1-8_小物
  6
CONTINUOUS
 62
    4
 10
91.866666673982763
 20
79.5
 11
91.866666673982763
 21
79.212345666666636
  0
LINE
  8
_1-8_小物
  6
CONTINUOUS
 62
    4
 10
90.800000007316157
 20
78.61650533333318
 11
91.866666673982763
 21
78.930085666666685
  0
LINE
  8
_1-8_小物
  6
CONTINUOUS
 62
    4
 10
90.800000007316157
 20
78.898765333333358
 11
91.866666673982763
 21
79.212345666666636
  0
LINE
  8
_1-8_小物
  6
CONTINUOUS
 62
    4
 10
90.555555673982781
 20
78.757635333333383
 11
92.11111100731614
 21
79.071215666666603
  0
LINE
  8
_1-8_小物
  6
CONTINUOUS
 62
    4
 10
90.555555673982781
 20
78.757635333333383
 11
90.800000007316157
 21
78.61650533333318
  0
LINE
  8
_1-8_小物
  6
CONTINUOUS
 62
    4
 10
90.555555673982781
 20
78.757635333333383
 11
90.800000007316157
 21
78.898765333333358
  0
LINE
  8
_1-8_小物
  6
CONTINUOUS
 62
    4
 10
92.11111100731614
 20
79.071215666666603
 11
91.866666673982763
 21
78.930085666666685
  0
LINE
  8
_1-8_小物
  6
CONTINUOUS
 62
    4
 10
91.866666673982763
 20
79.212345666666636
 11
92.11111100731614
 21
79.071215666666603
  0
LINE
  8
_1-8_小物
  6
CONTINUOUS
 62
    4
 10
91.671940007316152
 20
79.5
 11
90.800000007316157
 21
79.243665666666629
  0
LINE
  8
_1-8_小物
  6
CONTINUOUS
 62
    4
 10
91.127040673982833
 20
79.5
 11
90.555555673982781
 21
79.384796000000108
  0
LINE
  8
_1-8_小物
  6
CONTINUOUS
 62
    4
 10
90.555555673982781
 20
79.384796000000108
 11
90.800000007316157
 21
79.243665666666629
  0
LINE
  8
_1-8_小物
  6
CONTINUOUS
 62
    4
 10
90.755095007316413
 20
79.5
 11
90.555555673982781
 21
79.384796000000108
  0
LINE
  8
_1-8_小物
  6
CONTINUOUS
 62
    4
 10
90.800000007316157
 20
78.61650533333318
 11
90.800000007316157
 21
78.333333333333314
  0
LINE
  8
_1-8_小物
  6
CONTINUOUS
 62
    4
 10
91.009973492756217
 20
78.333333333333314
 11
91.866666673982763
 21
78.585185333333357
  0
LINE
  8
_1-8_小物
  6
CONTINUOUS
 62
    4
 10
91.561861440701819
 20
78.333333333333314
 11
92.11111100731614
 21
78.444054999999935
  0
LINE
  8
_1-8_小物
  6
CONTINUOUS
 62
    4
 10
92.11111100731614
 20
78.444054999999935
 11
91.919335452906125
 21
78.333333333333314
  0
LINE
  8
_1-8_小物
  6
CONTINUOUS
 62
    4
 10
89.666666673982604
 20
79.5
 11
93.000000007315975
 21
79.5
  0
ENDBLK
  0
BLOCK
  2
-029-_29_
 70
   64
 10
0
 20
0
 30
0
  0
ARC
  8
_1-7_カバ__
  6
CONTINUOUS
 62
    4
 10
78.833333336281896
 20
94.333333333333286
 40
0.5
 50
90
 51
180
  0
LINE
  8
_1-7_カバ__
  6
CONTINUOUS
 62
    4
 10
78.833333336281896
 20
94.833333333333286
 11
82.500000002948696
 21
94.833333333333286
  0
ARC
  8
_1-7_カバ__
  6
CONTINUOUS
 62
    4
 10
82.500000002948696
 20
94.333333333333286
 40
0.5
 50
0
 51
90
  0
ARC
  8
_1-7_カバ__
  6
CONTINUOUS
 62
    4
 10
82.500000002948696
 20
94.333333333333286
 40
0.1666666666666666
 50
0
 51
90
  0
LINE
  8
_1-7_カバ__
  6
CONTINUOUS
 62
    4
 10
78.833333336281896
 20
94.499999999999915
 11
82.500000002948696
 21
94.499999999999915
  0
ARC
  8
_1-7_カバ__
  6
CONTINUOUS
 62
    4
 10
78.833333336281896
 20
94.333333333333286
 40
0.1666666666666666
 50
90
 51
180
  0
LINE
  8
_1-7_カバ__
  6
CONTINUOUS
 62
    4
 10
78.333333336281896
 20
91.500000000000028
 11
78.666666669615211
 21
91.500000000000028
  0
LINE
  8
_1-7_カバ__
  6
CONTINUOUS
 62
    4
 10
78.333333336281896
 20
94.333333333333286
 11
78.333333336281896
 21
91.500000000000028
  0
LINE
  8
_1-7_カバ__
  6
CONTINUOUS
 62
    4
 10
78.666666669615211
 20
94.333333333333286
 11
78.666666669615211
 21
91.500000000000028
  0
ARC
  8
_1-7_カバ__
  6
CONTINUOUS
 62
    4
 10
83.166666669615381
 20
79.666666666666629
 40
0.1666666666666666
 50
180
 51
270
  0
LINE
  8
_1-7_カバ__
  6
CENTER2
 62
    4
 10
128.3333333362819
 20
82.166666666666629
 11
128.3333333362819
 21
77.166666666666629
  0
ARC
  8
_1-7_カバ__
  6
CONTINUOUS
 62
    4
 10
144.50000000294858
 20
78.999999999999915
 40
0.5
 50
0
 51
90
  0
LINE
  8
_1-7_カバ__
  6
CONTINUOUS
 62
    4
 10
145.00000000294858
 20
75.333333333333172
 11
145.00000000294858
 21
78.999999999999915
  0
ARC
  8
_1-7_カバ__
  6
CONTINUOUS
 62
    4
 10
144.50000000294858
 20
75.333333333333172
 40
0.5
 50
270
 51
0
  0
ARC
  8
_1-7_カバ__
  6
CONTINUOUS
 62
    4
 10
144.50000000294858
 20
75.333333333333172
 40
0.1666666666666666
 50
270
 51
0
  0
LINE
  8
_1-7_カバ__
  6
CONTINUOUS
 62
    4
 10
144.66666666961521
 20
75.333333333333172
 11
144.66666666961521
 21
78.999999999999915
  0
ARC
  8
_1-7_カバ__
  6
CONTINUOUS
 62
    4
 10
144.50000000294858
 20
78.999999999999915
 40
0.1666666666666666
 50
0
 51
90
  0
LINE
  8
_1-7_カバ__
  6
CONTINUOUS
 62
    4
 10
141.66666666961521
 20
74.833333333333172
 11
141.66666666961521
 21
75.166666666666544
  0
LINE
  8
_1-7_カバ__
  6
CONTINUOUS
 62
    4
 10
144.50000000294858
 20
74.833333333333172
 11
141.66666666961521
 21
74.833333333333172
  0
LINE
  8
_1-7_カバ__
  6
CONTINUOUS
 62
    4
 10
144.50000000294858
 20
75.166666666666544
 11
141.66666666961521
 21
75.166666666666544
  0
LINE
  8
_1-7_カバ__
  6
DASHED1
 62
    4
 10
127.41666666961521
 20
79.499999999999915
 11
127.41666666961521
 21
79.166666666666629
  0
LINE
  8
_1-7_カバ__
  6
DASHED1
 62
    4
 10
129.25000000294858
 20
79.499999999999915
 11
129.25000000294858
 21
79.166666666666629
  0
LINE
  8
_1-7_カバ__
  6
CONTINUOUS
 62
    4
 10
83.166666669615381
 20
79.499999999999915
 11
144.50000000294858
 21
79.499999999999915
  0
LINE
  8
_1-7_カバ__
  6
CENTER2
 62
    4
 10
91.333333336282067
 20
82.166666666666629
 11
91.333333336282067
 21
77.166666666666629
  0
LINE
  8
_1-7_カバ__
  6
DASHED1
 62
    4
 10
90.416666669615381
 20
79.499999999999915
 11
90.416666669615381
 21
79.166666666666629
  0
LINE
  8
_1-7_カバ__
  6
DASHED1
 62
    4
 10
92.250000002948696
 20
79.499999999999915
 11
92.250000002948696
 21
79.166666666666629
  0
ARC
  8
_1-7_カバ__
  6
CONTINUOUS
 62
    4
 10
83.166666669615381
 20
79.666666666666629
 40
0.5
 50
180
 51
270
  0
LINE
  8
_1-7_カバ__
  6
CONTINUOUS
 62
    4
 10
83.166666669615381
 20
79.166666666666629
 11
144.50000000294858
 21
79.166666666666629
  0
LINE
  8
_1-7_カバ__
  6
CONTINUOUS
 62
    4
 10
83.000000002948696
 20
94.333333333333286
 11
83.000000002948696
 21
79.666666666666629
  0
LINE
  8
_1-7_カバ__
  6
CONTINUOUS
 62
    4
 10
82.666666669615381
 20
94.333333333333286
 11
82.666666669615381
 21
79.666666666666629
  0
ENDBLK
  0
BLOCK
  2
-030-_30_
 70
   64
 10
0
 20
0
 30
0
  0
LINE
  8
_0-0_図面枠
  6
CONTINUOUS
 62
    7
 10
-17.103643301208507
 20
124.78846734235105
 11
-17.633973387058489
 21
124.48231430040107
  0
LINE
  8
_0-0_図面枠
  6
CONTINUOUS
 62
    7
 10
-16.197776643308515
 20
122.83680745630102
 11
-17.103643301208507
 21
124.78846734235105
  0
LINE
  8
_0-0_図面枠
  6
CONTINUOUS
 62
    7
 10
-19.578517035358487
 20
123.35975314665103
 11
-16.197776643308515
 21
122.83680745630102
  0
LINE
  8
_0-0_図面枠
  6
CONTINUOUS
 62
    7
 10
-19.048186949458483
 20
123.66590618860107
 11
-19.578517035358487
 21
123.35975314665103
  0
LINE
  8
_0-0_図面枠
  6
CONTINUOUS
 62
    7
 10
-23.644381027158488
 20
126.31923255200104
 11
-19.048186949458483
 21
123.66590618860107
  0
LINE
  8
_0-0_図面枠
  6
CONTINUOUS
 62
    7
 10
-28.240575104858522
 20
123.66590618860107
 11
-23.644381027158488
 21
126.31923255200104
  0
LINE
  8
_0-0_図面枠
  6
CONTINUOUS
 62
    7
 10
-27.710245019008539
 20
123.35975314665103
 11
-28.240575104858522
 21
123.66590618860107
  0
LINE
  8
_0-0_図面枠
  6
CONTINUOUS
 62
    7
 10
-31.090985411008546
 20
122.83680745630102
 11
-27.710245019008539
 21
123.35975314665103
  0
LINE
  8
_0-0_図面枠
  6
CONTINUOUS
 62
    7
 10
-30.18511875315852
 20
124.78846734235105
 11
-31.090985411008546
 21
122.83680745630102
  0
LINE
  8
_0-0_図面枠
  6
CONTINUOUS
 62
    7
 10
-29.654788667258515
 20
124.48231430040107
 11
-30.18511875315852
 21
124.78846734235105
  0
LINE
  8
_0-0_図面枠
  6
CONTINUOUS
 62
    7
 10
-25.058594589558538
 20
127.13564066385106
 11
-29.654788667258515
 21
124.48231430040107
  0
LINE
  8
_0-0_図面枠
  6
CONTINUOUS
 62
    7
 10
-29.654788667258515
 20
129.78896702725103
 11
-25.058594589558538
 21
127.13564066385106
  0
LINE
  8
_0-0_図面枠
  6
CONTINUOUS
 62
    7
 10
-30.18511875315852
 20
129.48281398535107
 11
-29.654788667258515
 21
129.78896702725103
  0
LINE
  8
_0-0_図面枠
  6
CONTINUOUS
 62
    7
 10
-31.090985411008546
 20
131.43447387140105
 11
-30.18511875315852
 21
129.48281398535107
  0
LINE
  8
_0-0_図面枠
  6
CONTINUOUS
 62
    7
 10
-27.710245019008539
 20
130.91152818105104
 11
-31.090985411008546
 21
131.43447387140105
  0
LINE
  8
_0-0_図面枠
  6
CONTINUOUS
 62
    7
 10
-28.240575104858522
 20
130.60537513910106
 11
-27.710245019008539
 21
130.91152818105104
  0
LINE
  8
_0-0_図面枠
  6
CONTINUOUS
 62
    7
 10
-23.644381027158488
 20
127.95204877565106
 11
-28.240575104858522
 21
130.60537513910106
  0
LINE
  8
_0-0_図面枠
  6
CONTINUOUS
 62
    7
 10
-19.048186949458483
 20
130.60537513910106
 11
-23.644381027158488
 21
127.95204877565106
  0
LINE
  8
_0-0_図面枠
  6
CONTINUOUS
 62
    7
 10
-19.578517035358487
 20
130.91152818105104
 11
-19.048186949458483
 21
130.60537513910106
  0
LINE
  8
_0-0_図面枠
  6
CONTINUOUS
 62
    7
 10
-16.197776643308515
 20
131.43447387140105
 11
-19.578517035358487
 21
130.91152818105104
  0
LINE
  8
_0-0_図面枠
  6
CONTINUOUS
 62
    7
 10
-17.103643301208507
 20
129.48281398535107
 11
-16.197776643308515
 21
131.43447387140105
  0
LINE
  8
_0-0_図面枠
  6
CONTINUOUS
 62
    7
 10
-17.633973387058489
 20
129.78896702725103
 11
-17.103643301208507
 21
129.48281398535107
  0
LINE
  8
_0-0_図面枠
  6
CONTINUOUS
 62
    7
 10
-22.230167464808517
 20
127.13564066385106
 11
-17.633973387058489
 21
129.78896702725103
  0
LINE
  8
_0-0_図面枠
  6
CONTINUOUS
 62
    7
 10
-17.633973387058489
 20
124.48231430040107
 11
-22.230167464808517
 21
127.13564066385106
  0
LINE
  8
_0-0_図面枠
  6
CONTINUOUS
 62
    7
 10
-31.090985411008546
 20
122.83680745630102
 11
-31.090985411008546
 21
122.22440184740105
  0
LINE
  8
_0-0_図面枠
  6
CONTINUOUS
 62
    7
 10
-27.710245019008539
 20
123.35975314665103
 11
-27.710245019008539
 21
122.74734753775107
  0
LINE
  8
_0-0_図面枠
  6
CONTINUOUS
 62
    7
 10
-31.090985411008546
 20
122.22440184740105
 11
-27.710245019008539
 21
122.74734753775107
  0
LINE
  8
_0-0_図面枠
  6
CONTINUOUS
 62
    7
 10
-19.578517035358487
 20
123.35975314665103
 11
-19.578517035358487
 21
122.74734753775107
  0
LINE
  8
_0-0_図面枠
  6
CONTINUOUS
 62
    7
 10
-16.197776643308515
 20
122.83680745630102
 11
-16.197776643308515
 21
122.22440184740105
  0
LINE
  8
_0-0_図面枠
  6
CONTINUOUS
 62
    7
 10
-19.578517035358487
 20
122.74734753775107
 11
-16.197776643308515
 21
122.22440184740105
  0
LINE
  8
_0-0_図面枠
  6
CONTINUOUS
 62
    7
 10
-23.644381027158488
 20
126.31923255200104
 11
-23.644381027158488
 21
125.70682694310108
  0
LINE
  8
_0-0_図面枠
  6
CONTINUOUS
 62
    7
 10
-27.710245019008539
 20
123.35965362160107
 11
-23.644381027158488
 21
125.70682694310108
  0
LINE
  8
_0-0_図面枠
  6
CONTINUOUS
 62
    7
 10
-23.644381027158488
 20
125.70682694310108
 11
-19.578517035358487
 21
123.35965362160107
  0
LINE
  8
_0-0_図面枠
  6
CONTINUOUS
 62
    7
 10
-29.654788667258515
 20
129.78896702725103
 11
-29.654788667258515
 21
129.17656141835107
  0
LINE
  8
_0-0_図面枠
  6
CONTINUOUS
 62
    7
 10
-29.654788667258515
 20
129.17656141835107
 11
-25.589010876008501
 21
126.82943785940108
  0
LINE
  8
_0-0_図面枠
  6
CONTINUOUS
 62
    7
 10
-17.633973387058489
 20
129.78896702725103
 11
-17.633973387058489
 21
129.17656141835107
  0
LINE
  8
_0-0_図面枠
  6
CONTINUOUS
 62
    7
 10
-21.699751178358497
 20
126.82943785940108
 11
-17.633973387058489
 21
129.17656141835107
  0
LINE
  8
_0-0_図面枠
  6
CONTINUOUS
 62
    7
 10
-17.103643301208507
 20
129.48281398535107
 11
-17.103643301208507
 21
128.87040837640103
  0
LINE
  8
_0-0_図面枠
  6
CONTINUOUS
 62
    7
 10
-17.633973387058489
 20
129.17656141835107
 11
-17.103643301208507
 21
128.87040837640103
  0
LINE
  8
_0-0_図面枠
  6
CONTINUOUS
 62
    7
 10
-16.197776643308515
 20
131.43447387140105
 11
-16.197776643308515
 21
130.82206826250103
  0
LINE
  8
_0-0_図面枠
  6
CONTINUOUS
 62
    7
 10
-17.103643301208507
 20
128.87040837640103
 11
-16.197776643308515
 21
130.82206826250103
  0
LINE
  8
_0-0_図面枠
  6
CONTINUOUS
 62
    7
 10
-30.18511875315852
 20
129.48281398535107
 11
-30.18511875315852
 21
128.87040837640103
  0
LINE
  8
_0-0_図面枠
  6
CONTINUOUS
 62
    7
 10
-30.18511875315852
 20
128.87040837640103
 11
-29.654788667258515
 21
129.17656141835107
  0
LINE
  8
_0-0_図面枠
  6
CONTINUOUS
 62
    7
 10
-31.090985411008546
 20
131.43447387140105
 11
-31.090985411008546
 21
130.82206826250103
  0
LINE
  8
_0-0_図面枠
  6
CONTINUOUS
 62
    7
 10
-31.090985411008546
 20
130.82206826250103
 11
-30.18511875315852
 21
128.87040837640103
  0
LINE
  8
_0-0_図面枠
  6
CONTINUOUS
 62
    7
 10
-19.578517035358487
 20
130.91152818105104
 11
-19.578517035358487
 21
130.29922209715107
  0
LINE
  8
_0-0_図面枠
  6
CONTINUOUS
 62
    7
 10
-27.710245019008539
 20
130.91152818105104
 11
-27.710245019008539
 21
130.29922209715107
  0
LINE
  8
ADD_LINE
  6
DOT
 62
    4
 10
-31.090985411008546
 20
131.43447387140105
 11
-16.198180070863003
 21
122.83610869927935
  0
LINE
  8
ADD_LINE
  6
DOT
 62
    4
 10
-16.197776643308515
 20
131.43447387140105
 11
-31.090581983453944
 21
122.83610869927935
  0
ENDBLK
  0
BLOCK
  2
-031-_31_
 70
   64
 10
0
 20
0
 30
0
  0
LINE
  8
_0-0_図面枠
  6
CONTINUOUS
 62
    7
 10
181.88186991188218
 20
125.54988384232564
 11
181.35153982603214
 21
125.24373080037566
  0
LINE
  8
_0-0_図面枠
  6
CONTINUOUS
 62
    7
 10
182.78773656978217
 20
123.5982239562756
 11
181.88186991188218
 21
125.54988384232564
  0
LINE
  8
_0-0_図面枠
  6
CONTINUOUS
 62
    7
 10
179.4069961777322
 20
124.12116964662562
 11
182.78773656978217
 21
123.5982239562756
  0
LINE
  8
_0-0_図面枠
  6
CONTINUOUS
 62
    7
 10
179.9373262636322
 20
124.42732268857566
 11
179.4069961777322
 21
124.12116964662562
  0
LINE
  8
_0-0_図面枠
  6
CONTINUOUS
 62
    7
 10
175.34113218593217
 20
127.08064905197563
 11
179.9373262636322
 21
124.42732268857566
  0
LINE
  8
_0-0_図面枠
  6
CONTINUOUS
 62
    7
 10
170.74493810823213
 20
124.42732268857566
 11
175.34113218593217
 21
127.08064905197563
  0
LINE
  8
_0-0_図面枠
  6
CONTINUOUS
 62
    7
 10
171.27526819408217
 20
124.12116964662562
 11
170.74493810823213
 21
124.42732268857566
  0
LINE
  8
_0-0_図面枠
  6
CONTINUOUS
 62
    7
 10
167.89452780208217
 20
123.5982239562756
 11
171.27526819408217
 21
124.12116964662562
  0
LINE
  8
_0-0_図面枠
  6
CONTINUOUS
 62
    7
 10
168.80039445993219
 20
125.54988384232564
 11
167.89452780208217
 21
123.5982239562756
  0
LINE
  8
_0-0_図面枠
  6
CONTINUOUS
 62
    7
 10
169.3307245458322
 20
125.24373080037566
 11
168.80039445993219
 21
125.54988384232564
  0
LINE
  8
_0-0_図面枠
  6
CONTINUOUS
 62
    7
 10
173.92691862353217
 20
127.89705716382565
 11
169.3307245458322
 21
125.24373080037566
  0
LINE
  8
_0-0_図面枠
  6
CONTINUOUS
 62
    7
 10
169.3307245458322
 20
130.55038352722562
 11
173.92691862353217
 21
127.89705716382565
  0
LINE
  8
_0-0_図面枠
  6
CONTINUOUS
 62
    7
 10
168.80039445993219
 20
130.24423048532566
 11
169.3307245458322
 21
130.55038352722562
  0
LINE
  8
_0-0_図面枠
  6
CONTINUOUS
 62
    7
 10
167.89452780208217
 20
132.19589037137564
 11
168.80039445993219
 21
130.24423048532566
  0
LINE
  8
_0-0_図面枠
  6
CONTINUOUS
 62
    7
 10
171.27526819408217
 20
131.67294468102563
 11
167.89452780208217
 21
132.19589037137564
  0
LINE
  8
_0-0_図面枠
  6
CONTINUOUS
 62
    7
 10
170.74493810823213
 20
131.36679163907564
 11
171.27526819408217
 21
131.67294468102563
  0
LINE
  8
_0-0_図面枠
  6
CONTINUOUS
 62
    7
 10
175.34113218593217
 20
128.71346527562565
 11
170.74493810823213
 21
131.36679163907564
  0
LINE
  8
_0-0_図面枠
  6
CONTINUOUS
 62
    7
 10
179.9373262636322
 20
131.36679163907564
 11
175.34113218593217
 21
128.71346527562565
  0
LINE
  8
_0-0_図面枠
  6
CONTINUOUS
 62
    7
 10
179.4069961777322
 20
131.67294468102563
 11
179.9373262636322
 21
131.36679163907564
  0
LINE
  8
_0-0_図面枠
  6
CONTINUOUS
 62
    7
 10
182.78773656978217
 20
132.19589037137564
 11
179.4069961777322
 21
131.67294468102563
  0
LINE
  8
_0-0_図面枠
  6
CONTINUOUS
 62
    7
 10
181.88186991188218
 20
130.24423048532566
 11
182.78773656978217
 21
132.19589037137564
  0
LINE
  8
_0-0_図面枠
  6
CONTINUOUS
 62
    7
 10
181.35153982603214
 20
130.55038352722562
 11
181.88186991188218
 21
130.24423048532566
  0
LINE
  8
_0-0_図面枠
  6
CONTINUOUS
 62
    7
 10
176.7553457482822
 20
127.89705716382565
 11
181.35153982603214
 21
130.55038352722562
  0
LINE
  8
_0-0_図面枠
  6
CONTINUOUS
 62
    7
 10
181.35153982603214
 20
125.24373080037566
 11
176.7553457482822
 21
127.89705716382565
  0
LINE
  8
_0-0_図面枠
  6
CONTINUOUS
 62
    7
 10
167.89452780208217
 20
123.5982239562756
 11
167.89452780208217
 21
122.98581834737564
  0
LINE
  8
_0-0_図面枠
  6
CONTINUOUS
 62
    7
 10
171.27526819408217
 20
124.12116964662562
 11
171.27526819408217
 21
123.50876403772565
  0
LINE
  8
_0-0_図面枠
  6
CONTINUOUS
 62
    7
 10
167.89452780208217
 20
122.98581834737564
 11
171.27526819408217
 21
123.50876403772565
  0
LINE
  8
_0-0_図面枠
  6
CONTINUOUS
 62
    7
 10
179.4069961777322
 20
124.12116964662562
 11
179.4069961777322
 21
123.50876403772565
  0
LINE
  8
_0-0_図面枠
  6
CONTINUOUS
 62
    7
 10
182.78773656978217
 20
123.5982239562756
 11
182.78773656978217
 21
122.98581834737564
  0
LINE
  8
_0-0_図面枠
  6
CONTINUOUS
 62
    7
 10
179.4069961777322
 20
123.50876403772565
 11
182.78773656978217
 21
122.98581834737564
  0
LINE
  8
_0-0_図面枠
  6
CONTINUOUS
 62
    7
 10
175.34113218593217
 20
127.08064905197563
 11
175.34113218593217
 21
126.46824344307566
  0
LINE
  8
_0-0_図面枠
  6
CONTINUOUS
 62
    7
 10
171.27526819408217
 20
124.12107012157566
 11
175.34113218593217
 21
126.46824344307566
  0
LINE
  8
_0-0_図面枠
  6
CONTINUOUS
 62
    7
 10
175.34113218593217
 20
126.46824344307566
 11
179.4069961777322
 21
124.12107012157566
  0
LINE
  8
_0-0_図面枠
  6
CONTINUOUS
 62
    7
 10
169.3307245458322
 20
130.55038352722562
 11
169.3307245458322
 21
129.93797791832566
  0
LINE
  8
_0-0_図面枠
  6
CONTINUOUS
 62
    7
 10
169.3307245458322
 20
129.93797791832566
 11
173.39650233708215
 21
127.59085435937567
  0
LINE
  8
_0-0_図面枠
  6
CONTINUOUS
 62
    7
 10
181.35153982603214
 20
130.55038352722562
 11
181.35153982603214
 21
129.93797791832566
  0
LINE
  8
_0-0_図面枠
  6
CONTINUOUS
 62
    7
 10
177.28576203473216
 20
127.59085435937567
 11
181.35153982603214
 21
129.93797791832566
  0
LINE
  8
_0-0_図面枠
  6
CONTINUOUS
 62
    7
 10
181.88186991188218
 20
130.24423048532566
 11
181.88186991188218
 21
129.63182487637562
  0
LINE
  8
_0-0_図面枠
  6
CONTINUOUS
 62
    7
 10
181.35153982603214
 20
129.93797791832566
 11
181.88186991188218
 21
129.63182487637562
  0
LINE
  8
_0-0_図面枠
  6
CONTINUOUS
 62
    7
 10
182.78773656978217
 20
132.19589037137564
 11
182.78773656978217
 21
131.58348476247562
  0
LINE
  8
_0-0_図面枠
  6
CONTINUOUS
 62
    7
 10
181.88186991188218
 20
129.63182487637562
 11
182.78773656978217
 21
131.58348476247562
  0
LINE
  8
_0-0_図面枠
  6
CONTINUOUS
 62
    7
 10
168.80039445993219
 20
130.24423048532566
 11
168.80039445993219
 21
129.63182487637562
  0
LINE
  8
_0-0_図面枠
  6
CONTINUOUS
 62
    7
 10
168.80039445993219
 20
129.63182487637562
 11
169.3307245458322
 21
129.93797791832566
  0
LINE
  8
_0-0_図面枠
  6
CONTINUOUS
 62
    7
 10
167.89452780208217
 20
132.19589037137564
 11
167.89452780208217
 21
131.58348476247562
  0
LINE
  8
_0-0_図面枠
  6
CONTINUOUS
 62
    7
 10
167.89452780208217
 20
131.58348476247562
 11
168.80039445993219
 21
129.63182487637562
  0
LINE
  8
_0-0_図面枠
  6
CONTINUOUS
 62
    7
 10
179.4069961777322
 20
131.67294468102563
 11
179.4069961777322
 21
131.06063859712566
  0
LINE
  8
_0-0_図面枠
  6
CONTINUOUS
 62
    7
 10
171.27526819408217
 20
131.67294468102563
 11
171.27526819408217
 21
131.06063859712566
  0
LINE
  8
ADD_LINE
  6
DOT
 62
    4
 10
167.89452780208217
 20
132.19589037137564
 11
182.78733314222762
 21
123.59752519925394
  0
LINE
  8
ADD_LINE
  6
DOT
 62
    4
 10
182.78773656978217
 20
132.19589037137564
 11
167.89493122963671
 21
123.59752519925394
  0
ENDBLK
  0
BLOCK
  2
-032-_32_
 70
   64
 10
0
 20
0
 30
0
  0
ARC
  8
_1-8_小物
  6
CONTINUOUS
 62
    4
 10
-58.3333333333334
 20
74.933333333333394
 40
0.0999999999999999
 50
180
 51
270
  0
ARC
  8
_1-8_小物
  6
CONTINUOUS
 62
    4
 10
-55.666666666666742
 20
74.166666666666686
 40
0.1666666666666666
 50
0
 51
90
  0
LINE
  8
_1-8_小物
  6
CONTINUOUS
 62
    4
 10
-58.433333333333422
 20
75.500000000000028
 11
-58.433333333333422
 21
74.933333333333394
  0
LINE
  8
_1-8_小物
  6
CONTINUOUS
 62
    4
 10
-55.000000000000085
 20
73.833333333333371
 11
-55.261467228243049
 21
70.844749239058103
  0
ARC
  8
_1-8_小物
  6
CONTINUOUS
 62
    4
 10
-55.593532127606949
 20
70.87380115330734
 40
0.3333333333333333
 50
116.53346871300016
 51
354.99999999999716
  0
ARC
  8
_1-8_小物
  6
CONTINUOUS
 62
    4
 10
-55.891345796427544
 20
71.470250198162034
 40
0.3333333333333333
 50
296.53346871299794
 51
358.57633437499265
  0
LINE
  8
_1-8_小物
  6
CONTINUOUS
 62
    4
 10
-55.500000000000085
 20
73.800354300154737
 11
-55.558115358773335
 21
71.461968499550323
  0
LINE
  8
_1-8_小物
  6
CONTINUOUS
 62
    4
 10
-55.500000000000085
 20
74.166666666666686
 11
-55.500000000000085
 21
73.800354300154737
  0
LINE
  8
_1-8_小物
  6
CONTINUOUS
 62
    4
 10
-58.3333333333334
 20
74.333333333333371
 11
-55.666666666666742
 21
74.333333333333371
  0
ARC
  8
_1-8_小物
  6
CONTINUOUS
 62
    4
 10
-58.3333333333334
 20
74.933333333333394
 40
0.5999999999999999
 50
180
 51
270
  0
LINE
  8
_1-8_小物
  6
CONTINUOUS
 62
    4
 10
-58.3333333333334
 20
74.833333333333371
 11
-55.3333333333334
 21
74.833333333333371
  0
LINE
  8
_1-8_小物
  6
CONTINUOUS
 62
    4
 10
-55.000000000000085
 20
73.833333333333371
 11
-55.000000000000085
 21
74.500000000000028
  0
ARC
  8
_1-8_小物
  6
CONTINUOUS
 62
    4
 10
-55.3333333333334
 20
74.500000000000028
 40
0.3333333333333333
 50
0
 51
90
  0
LINE
  8
_1-8_小物
  6
CONTINUOUS
 62
    4
 10
-58.933333333333422
 20
75.500000000000028
 11
-58.933333333333422
 21
74.933333333333394
  0
ARC
  8
_1-8_小物
  6
CONTINUOUS
 62
    4
 10
-58.3333333333334
 20
75.500000000000028
 40
0.5999999999999999
 50
74.999999999999744
 51
180
  0
LINE
  8
_1-8_小物
  6
CONTINUOUS
 62
    4
 10
-57.976111033731001
 20
75.417315823090462
 11
-57.196716925507587
 21
75.236913982560452
  0
ARC
  8
_1-8_小物
  6
CONTINUOUS
 62
    4
 10
-55.983353013599753
 20
75.685022730281219
 40
0.1666666666666662
 50
326.96758300232642
 51
146.96758300231829
  0
LINE
  8
_1-8_小物
  6
CONTINUOUS
 62
    4
 10
-56.116182692754876
 20
75.174989344988319
 11
-55.843625965927401
 21
75.594170488005403
  0
LINE
  8
_1-8_小物
  6
CONTINUOUS
 62
    4
 10
-57.196716925507587
 20
75.236913982560452
 11
-56.528429976932841
 21
75.167766001725397
  0
LINE
  8
_1-8_小物
  6
CONTINUOUS
 62
    4
 10
-56.528429976932841
 20
75.167766001725397
 11
-56.116182692754876
 21
75.174989344988319
  0
LINE
  8
_1-8_小物
  6
CONTINUOUS
 62
    4
 10
-56.220064469885244
 20
75.626716902857254
 11
-56.123080061272105
 21
75.775874972557062
  0
LINE
  8
_1-8_小物
  6
CONTINUOUS
 62
    4
 10
-58.198031952935906
 20
76.084545581167617
 11
-56.220064469885244
 21
75.626716902857254
  0
LINE
  8
_1-8_小物
  6
CONTINUOUS
 62
    4
 10
-57.953560803664772
 20
75.51474008661836
 11
-57.976111033731001
 21
75.417315823090462
  0
ARC
  8
_1-8_小物
  6
CONTINUOUS
 62
    4
 10
-58.3333333333334
 20
75.500000000000028
 40
0.0999999999999999
 50
76.967583002316431
 51
180
  0
LINE
  8
_1-8_小物
  6
CONTINUOUS
 62
    4
 10
-58.31078310326717
 20
75.597424263527955
 11
-57.953560803664772
 21
75.51474008661836
  0
ENDBLK
  0
BLOCK
  2
-033-_33_
 70
   64
 10
0
 20
0
 30
0
  0
ARC
  8
_1-8_小物
  6
CONTINUOUS
 62
    4
 10
141.66666667103266
 20
74.933333333333337
 40
0.0999999999999999
 50
180
 51
270
  0
ARC
  8
_1-8_小物
  6
CONTINUOUS
 62
    4
 10
144.33333333769934
 20
74.166666666666657
 40
0.1666666666666666
 50
0
 51
90
  0
LINE
  8
_1-8_小物
  6
CONTINUOUS
 62
    4
 10
141.56666667103269
 20
75.5
 11
141.56666667103269
 21
74.933333333333337
  0
LINE
  8
_1-8_小物
  6
CONTINUOUS
 62
    4
 10
145.00000000436603
 20
73.833333333333314
 11
144.73853277612307
 21
70.844749239058075
  0
ARC
  8
_1-8_小物
  6
CONTINUOUS
 62
    4
 10
144.40646787675911
 20
70.873801153307284
 40
0.3333333333333333
 50
116.53346871300235
 51
355.00000000000244
  0
ARC
  8
_1-8_小物
  6
CONTINUOUS
 62
    4
 10
144.10865420793857
 20
71.470250198161978
 40
0.3333333333333333
 50
296.53346871299578
 51
358.57633437499732
  0
LINE
  8
_1-8_小物
  6
CONTINUOUS
 62
    4
 10
144.50000000436603
 20
73.800354300154709
 11
144.44188464559272
 21
71.461968499550295
  0
LINE
  8
_1-8_小物
  6
CONTINUOUS
 62
    4
 10
144.50000000436603
 20
74.166666666666657
 11
144.50000000436603
 21
73.800354300154709
  0
LINE
  8
_1-8_小物
  6
CONTINUOUS
 62
    4
 10
141.66666667103266
 20
74.333333333333314
 11
144.33333333769934
 21
74.333333333333314
  0
ARC
  8
_1-8_小物
  6
CONTINUOUS
 62
    4
 10
141.66666667103266
 20
74.933333333333337
 40
0.5999999999999999
 50
180
 51
270
  0
LINE
  8
_1-8_小物
  6
CONTINUOUS
 62
    4
 10
141.66666667103266
 20
74.833333333333314
 11
144.66666667103266
 21
74.833333333333314
  0
LINE
  8
_1-8_小物
  6
CONTINUOUS
 62
    4
 10
145.00000000436603
 20
73.833333333333314
 11
145.00000000436603
 21
74.5
  0
ARC
  8
_1-8_小物
  6
CONTINUOUS
 62
    4
 10
144.66666667103266
 20
74.5
 40
0.3333333333333333
 50
0
 51
90
  0
LINE
  8
_1-8_小物
  6
CONTINUOUS
 62
    4
 10
141.06666667103269
 20
75.5
 11
141.06666667103269
 21
74.933333333333337
  0
ARC
  8
_1-8_小物
  6
CONTINUOUS
 62
    4
 10
141.66666667103266
 20
75.5
 40
0.5999999999999999
 50
74.999999999994515
 51
180
  0
LINE
  8
_1-8_小物
  6
CONTINUOUS
 62
    4
 10
142.02388897063503
 20
75.417315823090405
 11
142.80328307885844
 21
75.236913982560424
  0
ARC
  8
_1-8_小物
  6
CONTINUOUS
 62
    4
 10
144.01664699076633
 20
75.68502273028119
 40
0.1666666666666662
 50
326.96758300232642
 51
146.96758300232642
  0
LINE
  8
_1-8_小物
  6
CONTINUOUS
 62
    4
 10
143.88381731161121
 20
75.17498934498829
 11
144.15637403843863
 21
75.594170488005375
  0
LINE
  8
_1-8_小物
  6
CONTINUOUS
 62
    4
 10
142.80328307885844
 20
75.236913982560424
 11
143.47157002743324
 21
75.167766001725369
  0
LINE
  8
_1-8_小物
  6
CONTINUOUS
 62
    4
 10
143.47157002743324
 20
75.167766001725369
 11
143.88381731161121
 21
75.17498934498829
  0
LINE
  8
_1-8_小物
  6
CONTINUOUS
 62
    4
 10
143.77993553448079
 20
75.626716902857225
 11
143.87691994309398
 21
75.775874972557006
  0
LINE
  8
_1-8_小物
  6
CONTINUOUS
 62
    4
 10
141.80196805143015
 20
76.084545581167561
 11
143.77993553448079
 21
75.626716902857225
  0
LINE
  8
_1-8_小物
  6
CONTINUOUS
 62
    4
 10
142.04643920070134
 20
75.514740086618332
 11
142.02388897063503
 21
75.417315823090405
  0
ARC
  8
_1-8_小物
  6
CONTINUOUS
 62
    4
 10
141.66666667103266
 20
75.5
 40
0.0999999999999999
 50
76.967583002281017
 51
180
  0
LINE
  8
_1-8_小物
  6
CONTINUOUS
 62
    4
 10
141.68921690109892
 20
75.597424263527898
 11
142.04643920070134
 21
75.514740086618332
  0
ENDBLK
  0
BLOCK
  2
-034-_34_
 70
   64
 10
0
 20
0
 30
0
  0
ARC
  8
_1-8_小物
  6
CONTINUOUS
 62
    4
 10
78.433333336281919
 20
91.500000000000028
 40
0.0999999999999999
 50
180
 51
270
  0
ARC
  8
_1-8_小物
  6
CONTINUOUS
 62
    4
 10
77.666666669615267
 20
94.166666666666686
 40
0.1666666666666666
 50
0
 51
90
  0
LINE
  8
_1-8_小物
  6
CONTINUOUS
 62
    4
 10
79.000000002948582
 20
91.400000000000006
 11
78.433333336281919
 21
91.400000000000006
  0
LINE
  8
_1-8_小物
  6
CONTINUOUS
 62
    4
 10
77.333333336281896
 20
94.833333333333314
 11
74.344749242006685
 21
94.571866105090351
  0
ARC
  8
_1-8_小物
  6
CONTINUOUS
 62
    4
 10
74.373801156255865
 20
94.239801205726451
 40
0.3333333333333333
 50
95.000000000003283
 51
333.466531287002
  0
ARC
  8
_1-8_小物
  6
CONTINUOUS
 62
    4
 10
74.970250201110559
 20
93.941987536905856
 40
0.3333333333333333
 50
91.423665625007231
 51
153.46653128699765
  0
LINE
  8
_1-8_小物
  6
CONTINUOUS
 62
    4
 10
77.300354303103347
 20
94.333333333333314
 11
74.961968502498905
 21
94.275217974560093
  0
LINE
  8
_1-8_小物
  6
CONTINUOUS
 62
    4
 10
77.666666669615267
 20
94.333333333333314
 11
77.300354303103347
 21
94.333333333333314
  0
LINE
  8
_1-8_小物
  6
CONTINUOUS
 62
    4
 10
77.833333336281896
 20
91.500000000000028
 11
77.833333336281896
 21
94.166666666666686
  0
ARC
  8
_1-8_小物
  6
CONTINUOUS
 62
    4
 10
78.433333336281919
 20
91.500000000000028
 40
0.5999999999999999
 50
180
 51
270
  0
LINE
  8
_1-8_小物
  6
CONTINUOUS
 62
    4
 10
78.333333336281896
 20
91.500000000000028
 11
78.333333336281896
 21
94.500000000000028
  0
LINE
  8
_1-8_小物
  6
CONTINUOUS
 62
    4
 10
77.333333336281896
 20
94.833333333333314
 11
78.000000002948639
 21
94.833333333333314
  0
ARC
  8
_1-8_小物
  6
CONTINUOUS
 62
    4
 10
78.000000002948639
 20
94.500000000000028
 40
0.3333333333333333
 50
0
 51
90
  0
LINE
  8
_1-8_小物
  6
CONTINUOUS
 62
    4
 10
79.000000002948582
 20
90.900000000000006
 11
78.433333336281919
 21
90.900000000000006
  0
ARC
  8
_1-8_小物
  6
CONTINUOUS
 62
    4
 10
79.000000002948582
 20
91.500000000000028
 40
0.5999999999999999
 50
270
 51
15.000000000002899
  0
LINE
  8
_1-8_小物
  6
CONTINUOUS
 62
    4
 10
78.91731582603893
 20
91.85722229960237
 11
78.736913985509034
 21
92.636616407825784
  0
ARC
  8
_1-8_小物
  6
CONTINUOUS
 62
    4
 10
79.185022733229744
 20
93.849980319733675
 40
0.1666666666666662
 50
303.03241699770342
 51
123.03241699766005
  0
LINE
  8
_1-8_小物
  6
CONTINUOUS
 62
    4
 10
78.674989347936901
 20
93.717150640578495
 11
79.094170490953957
 21
93.98970736740597
  0
LINE
  8
_1-8_小物
  6
CONTINUOUS
 62
    4
 10
78.736913985509034
 20
92.636616407825784
 11
78.667766004673979
 21
93.30490335640053
  0
LINE
  8
_1-8_小物
  6
CONTINUOUS
 62
    4
 10
78.667766004673979
 20
93.30490335640053
 11
78.674989347936901
 21
93.717150640578495
  0
LINE
  8
_1-8_小物
  6
CONTINUOUS
 62
    4
 10
79.126716905805779
 20
93.613268863448127
 11
79.275874975505531
 21
93.710253272061266
  0
LINE
  8
_1-8_小物
  6
CONTINUOUS
 62
    4
 10
79.584545584116086
 20
91.635301380397493
 11
79.126716905805779
 21
93.613268863448127
  0
LINE
  8
_1-8_小物
  6
CONTINUOUS
 62
    4
 10
79.014740089566885
 20
91.879772529668628
 11
78.91731582603893
 21
91.85722229960237
  0
ARC
  8
_1-8_小物
  6
CONTINUOUS
 62
    4
 10
79.000000002948582
 20
91.500000000000028
 40
0.0999999999999999
 50
270
 51
13.032416997679888
  0
LINE
  8
_1-8_小物
  6
CONTINUOUS
 62
    4
 10
79.09742426647648
 20
91.522550230066201
 11
79.014740089566885
 21
91.879772529668628
  0
ENDBLK
  0
BLOCK
  2
-035-_35_
 70
   64
 10
0
 20
0
 30
0
  0
ARC
  8
_1-8_小物
  6
CONTINUOUS
 62
    4
 10
-141.6666666666666
 20
74.933333333333394
 40
0.0999999999999999
 50
270
 51
0
  0
ARC
  8
_1-8_小物
  6
CONTINUOUS
 62
    4
 10
-144.33333333333326
 20
74.166666666666686
 40
0.1666666666666666
 50
90
 51
180
  0
LINE
  8
_1-8_小物
  6
CONTINUOUS
 62
    4
 10
-141.56666666666658
 20
75.500000000000028
 11
-141.56666666666658
 21
74.933333333333394
  0
LINE
  8
_1-8_小物
  6
CONTINUOUS
 62
    4
 10
-144.99999999999991
 20
73.833333333333371
 11
-144.73853277175695
 21
70.844749239058103
  0
ARC
  8
_1-8_小物
  6
CONTINUOUS
 62
    4
 10
-144.40646787239305
 20
70.87380115330734
 40
0.3333333333333333
 50
185.00000000000284
 51
63.466531286999839
  0
ARC
  8
_1-8_小物
  6
CONTINUOUS
 62
    4
 10
-144.10865420357246
 20
71.470250198162034
 40
0.3333333333333333
 50
181.42366562500735
 51
243.46653128699765
  0
LINE
  8
_1-8_小物
  6
CONTINUOUS
 62
    4
 10
-144.49999999999991
 20
73.800354300154737
 11
-144.44188464122666
 21
71.461968499550323
  0
LINE
  8
_1-8_小物
  6
CONTINUOUS
 62
    4
 10
-144.49999999999991
 20
74.166666666666686
 11
-144.49999999999991
 21
73.800354300154737
  0
LINE
  8
_1-8_小物
  6
CONTINUOUS
 62
    4
 10
-141.6666666666666
 20
74.333333333333371
 11
-144.33333333333326
 21
74.333333333333371
  0
ARC
  8
_1-8_小物
  6
CONTINUOUS
 62
    4
 10
-141.6666666666666
 20
74.933333333333394
 40
0.5999999999999999
 50
270
 51
0
  0
LINE
  8
_1-8_小物
  6
CONTINUOUS
 62
    4
 10
-141.6666666666666
 20
74.833333333333371
 11
-144.6666666666666
 21
74.833333333333371
  0
LINE
  8
_1-8_小物
  6
CONTINUOUS
 62
    4
 10
-144.99999999999991
 20
73.833333333333371
 11
-144.99999999999991
 21
74.500000000000028
  0
ARC
  8
_1-8_小物
  6
CONTINUOUS
 62
    4
 10
-144.6666666666666
 20
74.500000000000028
 40
0.3333333333333333
 50
90
 51
180
  0
LINE
  8
_1-8_小物
  6
CONTINUOUS
 62
    4
 10
-141.06666666666658
 20
75.500000000000028
 11
-141.06666666666658
 21
74.933333333333394
  0
ARC
  8
_1-8_小物
  6
CONTINUOUS
 62
    4
 10
-141.6666666666666
 20
75.500000000000028
 40
0.5999999999999999
 50
0
 51
105.00000000000026
  0
LINE
  8
_1-8_小物
  6
CONTINUOUS
 62
    4
 10
-142.023888966269
 20
75.417315823090462
 11
-142.80328307449241
 21
75.236913982560452
  0
ARC
  8
_1-8_小物
  6
CONTINUOUS
 62
    4
 10
-144.01664698640025
 20
75.685022730281219
 40
0.1666666666666662
 50
33.032416997681736
 51
213.03241699767352
  0
LINE
  8
_1-8_小物
  6
CONTINUOUS
 62
    4
 10
-143.88381730724512
 20
75.174989344988319
 11
-144.1563740340726
 21
75.594170488005403
  0
LINE
  8
_1-8_小物
  6
CONTINUOUS
 62
    4
 10
-142.80328307449241
 20
75.236913982560452
 11
-143.47157002306716
 21
75.167766001725397
  0
LINE
  8
_1-8_小物
  6
CONTINUOUS
 62
    4
 10
-143.47157002306716
 20
75.167766001725397
 11
-143.88381730724512
 21
75.174989344988319
  0
LINE
  8
_1-8_小物
  6
CONTINUOUS
 62
    4
 10
-143.77993553011476
 20
75.626716902857254
 11
-143.87691993872789
 21
75.775874972557062
  0
LINE
  8
_1-8_小物
  6
CONTINUOUS
 62
    4
 10
-141.80196804706409
 20
76.084545581167617
 11
-143.77993553011476
 21
75.626716902857254
  0
LINE
  8
_1-8_小物
  6
CONTINUOUS
 62
    4
 10
-142.04643919633523
 20
75.51474008661836
 11
-142.023888966269
 21
75.417315823090462
  0
ARC
  8
_1-8_小物
  6
CONTINUOUS
 62
    4
 10
-141.6666666666666
 20
75.500000000000028
 40
0.0999999999999999
 50
0
 51
103.03241699768358
  0
LINE
  8
_1-8_小物
  6
CONTINUOUS
 62
    4
 10
-141.68921689673283
 20
75.597424263527955
 11
-142.04643919633523
 21
75.51474008661836
  0
ENDBLK
  0
ENDSEC
  0
SECTION
  2
ENTITIES
  0
LINE
  8
_0-0_図面枠
  6
CONTINUOUS
 62
    6
 10
410.00000000000006
 20
287
 11
10
 21
287.00000000000006
  0
LINE
  8
_0-0_図面枠
  6
CONTINUOUS
 62
    6
 10
410
 20
9.9999999999998863
 11
410.00000000000006
 21
287
  0
LINE
  8
_0-0_図面枠
  6
CONTINUOUS
 62
    6
 10
9.9999999999999147
 20
10
 11
410
 21
9.9999999999998863
  0
LINE
  8
_0-0_図面枠
  6
CONTINUOUS
 62
    6
 10
10
 20
287.00000000000006
 11
9.9999999999999147
 21
10
  0
LINE
  8
ADD_LINE
  6
DOT
 62
    4
 10
0
 20
148.5
 11
420
 21
148.5
  0
LINE
  8
_0-0_図面枠
  6
CONTINUOUS
 62
    6
 10
210
 20
287
 11
210.00000000000003
 21
9.9999999999999432
  0
INSERT
  2
-000-
  8
_1-4_フレ__ム
 10
210
 20
148.5
 41
1
 42
1
 50
0
  0
INSERT
  2
-001-_1_
  8
_1-4_フレ__ム
 10
210
 20
148.5
 41
1
 42
1
 50
0
  0
INSERT
  2
-002-_2_
  8
_1-8_小物
 10
210
 20
148.5
 41
1
 42
1
 50
0
  0
INSERT
  2
-003-_3_
  8
_1-8_小物
 10
210
 20
148.5
 41
1
 42
1
 50
0
  0
INSERT
  2
-004-_4_
  8
_1-8_小物
 10
210
 20
148.5
 41
1
 42
1
 50
0
  0
INSERT
  2
-005-_5_
  8
_1-8_小物
 10
210
 20
148.5
 41
1
 42
1
 50
0
  0
LINE
  8
_1-3_止水補助板
  6
CONTINUOUS
 62
    4
 10
151.66666666666697
 20
220
 11
151.66666666666697
 21
220.33333333333331
  0
LINE
  8
_1-3_止水補助板
  6
CONTINUOUS
 62
    4
 10
68.333333333333627
 20
220
 11
68.333333333333627
 21
220.33333333333331
  0
ARC
  8
_1-3_止水補助板
  6
CONTINUOUS
 62
    4
 10
110.00000000000075
 20
187.87587304540241
 40
15.833809794084612
 50
195.00000000000003
 51
344.75420844591656
  0
ARC
  8
_1-3_止水補助板
  6
CONTINUOUS
 62
    4
 10
110.00000000000075
 20
187.87587304540241
 40
15.50047646075128
 50
195.00000000000034
 51
344.7542084459165
  0
LINE
  8
_1-3_止水補助板
  6
CONTINUOUS
 62
    4
 10
135
 20
220
 11
151.66666666666697
 21
220
  0
LINE
  8
_1-3_止水補助板
  6
CONTINUOUS
 62
    4
 10
135
 20
220
 11
125.29428580865593
 21
183.77778151416243
  0
LINE
  8
_1-3_止水補助板
  6
CONTINUOUS
 62
    4
 10
134.74422433734009
 20
220.33333333333331
 11
151.66666666666697
 21
220.33333333333331
  0
LINE
  8
_1-3_止水補助板
  6
CONTINUOUS
 62
    4
 10
134.74422433734009
 20
220.33333333333331
 11
124.97231053322639
 21
183.86405452919666
  0
LINE
  8
_1-3_止水補助板
  6
CONTINUOUS
 62
    4
 10
85.000000000001506
 20
220
 11
68.333333333333627
 21
220
  0
LINE
  8
_1-3_止水補助板
  6
CONTINUOUS
 62
    4
 10
85.000000000001506
 20
220
 11
94.705714191345578
 21
183.77778151416243
  0
LINE
  8
_1-3_止水補助板
  6
CONTINUOUS
 62
    4
 10
85.255775662661406
 20
220.33333333333331
 11
68.333333333333627
 21
220.33333333333331
  0
LINE
  8
_1-3_止水補助板
  6
CONTINUOUS
 62
    4
 10
85.255775662661406
 20
220.33333333333331
 11
95.027689466775115
 21
183.86405452919666
  0
LINE
  8
_1-3_止水補助板
  6
CONTINUOUS
 62
    4
 10
351.66666666666663
 20
219.99999999999994
 11
351.66666666666663
 21
220.33333333333329
  0
LINE
  8
_1-3_止水補助板
  6
CONTINUOUS
 62
    4
 10
285.00000000000028
 20
236.13333333333438
 11
285.33333333333348
 21
236.13333333333438
  0
LINE
  8
_1-3_止水補助板
  6
CONTINUOUS
 62
    4
 10
285.00000000000028
 20
219.99999999999949
 11
285.00000000000028
 21
236.13333333333438
  0
LINE
  8
_1-3_止水補助板
  6
CONTINUOUS
 62
    4
 10
335
 20
219.99999999999994
 11
351.66666666666663
 21
219.99999999999994
  0
LINE
  8
_1-3_止水補助板
  6
CONTINUOUS
 62
    4
 10
335
 20
219.99999999999994
 11
325.29428580865533
 21
183.7777815141599
  0
LINE
  8
_1-3_止水補助板
  6
CONTINUOUS
 62
    4
 10
334.74422433734009
 20
220.33333333333329
 11
351.66666666666663
 21
220.33333333333329
  0
LINE
  8
_1-3_止水補助板
  6
CONTINUOUS
 62
    4
 10
334.74422433734009
 20
220.33333333333329
 11
324.97231053322594
 21
183.86405452919411
  0
LINE
  8
_1-3_止水補助板
  6
CONTINUOUS
 62
    4
 10
285.00000000000028
 20
219.99999999999994
 11
294.70571419134495
 21
183.7777815141599
  0
LINE
  8
_1-3_止水補助板
  6
CONTINUOUS
 62
    4
 10
285.33333333333348
 20
220.04388416586383
 11
285.33333333333348
 21
236.13333333333438
  0
LINE
  8
_1-3_止水補助板
  6
CONTINUOUS
 62
    4
 10
285.33333333333348
 20
220.04388416586383
 11
295.02768946677452
 21
183.86405452919411
  0
ARC
  8
_1-3_止水補助板
  6
CONTINUOUS
 62
    4
 10
310.00000000000011
 20
187.87587304539983
 40
15.833809794084612
 50
195.00000000000034
 51
344.75420844591662
  0
ARC
  8
_1-3_止水補助板
  6
CONTINUOUS
 62
    4
 10
310.00000000000011
 20
187.87587304539983
 40
15.50047646075128
 50
195.00000000000011
 51
344.75420844591667
  0
LINE
  8
_1-0_躯体
  6
CENTER2
 62
    4
 10
110
 20
165
 11
110
 21
233.33333333333331
  0
LINE
  8
_1-0_躯体
  6
CENTER2
 62
    4
 10
310
 20
164.99999999999997
 11
310
 21
249.7404519904824
  0
INSERT
  2
-006-_6_
  8
_1-0_躯体
 10
210
 20
148.5
 41
1
 42
1
 50
0
  0
INSERT
  2
-007-_7_
  8
_1-0_躯体
 10
210
 20
148.5
 41
1
 42
1
 50
0
  0
INSERT
  2
-008-_8_
  8
_1-0_躯体
 10
210
 20
148.5
 41
1
 42
1
 50
0
  0
INSERT
  2
-009-_9_
  8
_1-0_躯体
 10
210
 20
148.5
 41
1
 42
1
 50
0
  0
LINE
  8
_1-f_寸法
  6
CONTINUOUS
 62
    4
 10
85.000000000001961
 20
204.99999999999994
 11
85.000000000001961
 21
198.39999999999998
  0
LINE
  8
_1-f_寸法
  6
CONTINUOUS
 62
    4
 10
73.333333333335275
 20
204.99999999999994
 11
73.333333333335275
 21
198.39999999999998
  0
POINT
  8
_1-f_寸法
 62
    4
 10
73.333333333335275
 20
199.99999999999994
  0
POINT
  8
_1-f_寸法
 62
    4
 10
85.000000000001961
 20
199.99999999999994
  0
LINE
  8
_1-f_寸法
  6
CONTINUOUS
 62
    4
 10
73.333333333335275
 20
199.99999999999994
 11
85.000000000001961
 21
199.99999999999994
  0
TEXT
  8
_1-f_寸法
 62
    4
 10
77.566666666668596
 20
199.99999999999994
 40
3.2000000000000002
 41
1
 50
0
  1
35
  0
LINE
  8
_1-f_寸法
  6
CONTINUOUS
 62
    4
 10
134.99999999999804
 20
204.99999999999994
 11
134.99999999999804
 21
198.39999999999998
  0
LINE
  8
_1-f_寸法
  6
CONTINUOUS
 62
    4
 10
146.66666666666472
 20
204.99999999999994
 11
146.66666666666472
 21
198.39999999999998
  0
POINT
  8
_1-f_寸法
 62
    4
 10
146.66666666666472
 20
199.99999999999994
  0
POINT
  8
_1-f_寸法
 62
    4
 10
134.99999999999804
 20
199.99999999999994
  0
LINE
  8
_1-f_寸法
  6
CONTINUOUS
 62
    4
 10
146.66666666666472
 20
199.99999999999994
 11
134.99999999999804
 21
199.99999999999994
  0
TEXT
  8
_1-f_寸法
 62
    4
 10
139.23333333333139
 20
199.99999999999994
 40
3.2000000000000002
 41
1
 50
0
  1
35
  0
LINE
  8
_1-f_寸法
  6
CONTINUOUS
 62
    4
 10
334.99999999999801
 20
204.99999999999991
 11
334.99999999999801
 21
198.39999999999992
  0
LINE
  8
_1-f_寸法
  6
CONTINUOUS
 62
    4
 10
346.6666666666647
 20
204.99999999999991
 11
346.6666666666647
 21
198.39999999999992
  0
POINT
  8
_1-f_寸法
 62
    4
 10
346.6666666666647
 20
199.99999999999991
  0
POINT
  8
_1-f_寸法
 62
    4
 10
334.99999999999801
 20
199.99999999999991
  0
LINE
  8
_1-f_寸法
  6
CONTINUOUS
 62
    4
 10
346.6666666666647
 20
199.99999999999991
 11
334.99999999999801
 21
199.99999999999991
  0
TEXT
  8
_1-f_寸法
 62
    4
 10
339.23333333333136
 20
199.99999999999991
 40
3.2000000000000002
 41
1
 50
0
  1
35
  0
LINE
  8
_1-f_寸法
  6
CONTINUOUS
 62
    4
 10
268.33333333333371
 20
220.00000000000006
 11
261.73333333333375
 21
220.00000000000006
  0
LINE
  8
_1-f_寸法
  6
CONTINUOUS
 62
    4
 10
268.33333333333371
 20
231.66667066995834
 11
261.73333333333375
 21
231.66667066995834
  0
POINT
  8
_1-f_寸法
 62
    4
 10
263.33333333333371
 20
231.66667066995834
  0
POINT
  8
_1-f_寸法
 62
    4
 10
263.33333333333371
 20
220.00000000000006
  0
LINE
  8
_1-f_寸法
  6
CONTINUOUS
 62
    4
 10
263.33333333333371
 20
231.66667066995834
 11
263.33333333333371
 21
220.00000000000006
  0
TEXT
  8
_1-f_寸法
 62
    4
 10
263.33333333333371
 20
224.23333533497922
 40
3.2000000000000002
 41
1
 50
90
  1
35
  0
LINE
  8
_1-f_寸法
  6
CONTINUOUS
 62
    4
 10
268.33333333333371
 20
220.00000000000006
 11
333.33333333333331
 21
220.00000000000006
  0
CIRCLE
  8
_1-f_寸法
  6
CONTINUOUS
 62
    4
 10
96.666666666666657
 20
196.66666666666666
 40
1.6666666666666665
  0
TEXT
  8
_1-f_寸法
 62
    4
 10
96.041666666666657
 20
195.41666666666666
 40
2.5
 41
1
 50
0
  1
6
  0
LINE
  8
_1-f_寸法
  6
CONTINUOUS
 62
    4
 10
95.833333333333329
 20
195.22329099369259
 11
93.086332652274763
 21
190.46534624567289
  0
CIRCLE
  8
_1-f_寸法
  6
CONTINUOUS
 62
    4
 10
158.33333341279985
 20
225
 40
1.6666666666666665
  0
CIRCLE
  8
_1-f_寸法
  6
CONTINUOUS
 62
    4
 10
158.33333341279985
 20
225
 40
1.6666666666666665
  0
LINE
  8
_1-f_寸法
  6
CONTINUOUS
 62
    4
 10
157.15482211082229
 20
223.82148869802245
 11
154.83333341279985
 21
221.5
  0
TEXT
  8
_1-f_寸法
 62
    4
 10
157.08333341279985
 20
223.75
 40
2.5
 41
1
 50
0
  1
11
  0
CIRCLE
  8
_1-f_寸法
  6
CONTINUOUS
 62
    4
 10
140.0000000794665
 20
215
 40
1.6666666666666665
  0
CIRCLE
  8
_1-f_寸法
  6
CONTINUOUS
 62
    4
 10
153.33333341279985
 20
208.33333333333331
 40
1.6666666666666665
  0
CIRCLE
  8
_1-f_寸法
  6
CONTINUOUS
 62
    4
 10
153.33333341279985
 20
215
 40
1.6666666666666665
  0
TEXT
  8
_1-f_寸法
 62
    4
 10
152.70833341279985
 20
213.75
 40
2.5
 41
1
 50
0
  1
8
  0
TEXT
  8
_1-f_寸法
 62
    4
 10
139.3750000794665
 20
213.75
 40
2.5
 41
1
 50
0
  1
9
  0
TEXT
  8
_1-f_寸法
 62
    4
 10
152.08333341279985
 20
207.08333333333331
 40
2.5
 41
1
 50
0
  1
10
  0
LINE
  8
_1-f_寸法
  6
CONTINUOUS
 62
    4
 10
141.02010664778254
 20
216.31801379623136
 11
144.70833341279985
 21
221.08333333333331
  0
LINE
  8
_1-f_寸法
  6
CONTINUOUS
 62
    4
 10
152.17222436090782
 20
216.19566029765662
 11
146.66666674613316
 21
221.86504737695009
  0
LINE
  8
_1-f_寸法
  6
CONTINUOUS
 62
    4
 10
152.36846354766575
 20
209.69230497436706
 11
147.41666674613299
 21
216.66666666666657
  0
ARC
  8
_1-8_小物
  6
CONTINUOUS
 62
    4
 10
155.57426667472751
 20
222.12314811543027
 40
3.0129628785275182
 50
195.19701498033382
 51
224.80298501965711
  0
ARC
  8
_1-8_小物
  6
CONTINUOUS
 62
    4
 10
64.425733404738622
 20
222.12314809643044
 40
3.0129628785275182
 50
315.19701498034055
 51
344.8029850196628
  0
ARC
  8
_1-8_小物
  6
CONTINUOUS
 62
    4
 10
355.57426667472748
 20
222.1231481154303
 40
3.0129628785275182
 50
195.19701498033498
 51
224.80298501965711
  0
LINE
  8
_1-f_寸法
  6
CONTINUOUS
 62
    4
 10
281.51260461062407
 20
237.63346857982435
 11
285.58333333333303
 21
235.75000000000011
  0
CIRCLE
  8
_1-f_寸法
  6
CONTINUOUS
 62
    4
 10
279.99999999999955
 20
238.33332933004198
 40
1.6666666666666665
  0
TEXT
  8
_1-f_寸法
 62
    4
 10
279.37499999999955
 20
237.08332933004198
 40
2.5
 41
1
 50
0
  1
4
  0
CIRCLE
  8
_1-f_寸法
  6
CONTINUOUS
 62
    4
 10
358.33333333333331
 20
224.99999999999994
 40
1.6666666666666665
  0
CIRCLE
  8
_1-f_寸法
  6
CONTINUOUS
 62
    4
 10
358.33333333333331
 20
224.99999999999994
 40
1.6666666666666665
  0
LINE
  8
_1-f_寸法
  6
CONTINUOUS
 62
    4
 10
357.15482203135576
 20
223.82148869802239
 11
354.83333333333331
 21
221.49999999999994
  0
TEXT
  8
_1-f_寸法
 62
    4
 10
357.08333333333331
 20
223.74999999999994
 40
2.5
 41
1
 50
0
  1
11
  0
CIRCLE
  8
_1-f_寸法
  6
CONTINUOUS
 62
    4
 10
340
 20
214.99999999999994
 40
1.6666666666666665
  0
CIRCLE
  8
_1-f_寸法
  6
CONTINUOUS
 62
    4
 10
353.33333333333331
 20
208.33333333333329
 40
1.6666666666666665
  0
CIRCLE
  8
_1-f_寸法
  6
CONTINUOUS
 62
    4
 10
353.33333333333331
 20
214.99999999999994
 40
1.6666666666666665
  0
TEXT
  8
_1-f_寸法
 62
    4
 10
352.70833333333331
 20
213.74999999999994
 40
2.5
 41
1
 50
0
  1
8
  0
TEXT
  8
_1-f_寸法
 62
    4
 10
339.375
 20
213.74999999999994
 40
2.5
 41
1
 50
0
  1
9
  0
TEXT
  8
_1-f_寸法
 62
    4
 10
352.08333333333331
 20
207.08333333333329
 40
2.5
 41
1
 50
0
  1
10
  0
LINE
  8
_1-f_寸法
  6
CONTINUOUS
 62
    4
 10
341.02010656831601
 20
216.31801379623133
 11
344.70833333333331
 21
221.08333333333329
  0
LINE
  8
_1-f_寸法
  6
CONTINUOUS
 62
    4
 10
352.17222428144123
 20
216.19566029765659
 11
346.66666666666663
 21
221.86504737695003
  0
LINE
  8
_1-f_寸法
  6
CONTINUOUS
 62
    4
 10
352.36846346819925
 20
209.692304974367
 11
347.41666666666652
 21
216.66666666666654
  0
LINE
  8
_1-f_寸法
  6
CONTINUOUS
 62
    4
 10
366.66666666666657
 20
243.33332698040743
 11
373.26666666666654
 21
243.33332698040743
  0
LINE
  8
_1-f_寸法
  6
CONTINUOUS
 62
    4
 10
366.66666666666657
 20
219.99999999999994
 11
373.26666666666654
 21
219.99999999999994
  0
POINT
  8
_1-f_寸法
 62
    4
 10
371.66666666666657
 20
219.99999999999994
  0
POINT
  8
_1-f_寸法
 62
    4
 10
371.66666666666657
 20
243.33332698040743
  0
LINE
  8
_1-f_寸法
  6
CONTINUOUS
 62
    4
 10
371.66666666666657
 20
219.99999999999994
 11
371.66666666666657
 21
243.33332698040743
  0
TEXT
  8
_1-f_寸法
 62
    4
 10
371.66666666666657
 20
230.06666349020372
 40
3.2000000000000002
 41
1
 50
90
  1
70
  0
LINE
  8
_1-f_寸法
  6
CONTINUOUS
 62
    4
 10
359.99999999999989
 20
243.33332698040743
 11
295
 21
243.33332698040743
  0
CIRCLE
  8
_1-f_寸法
  6
CONTINUOUS
 62
    4
 10
296.66666666666663
 20
196.66666666666663
 40
1.6666666666666665
  0
TEXT
  8
_1-f_寸法
 62
    4
 10
296.04166666666663
 20
195.41666666666663
 40
2.5
 41
1
 50
0
  1
6
  0
LINE
  8
_1-f_寸法
  6
CONTINUOUS
 62
    4
 10
295.83333333333331
 20
195.22329099369256
 11
293.08633265227473
 21
190.46534624567283
  0
LINE
  8
_1-f_寸法
  6
CONTINUOUS
 62
    4
 10
355
 20
251.66666666666666
 11
355
 21
258.26666666666659
  0
LINE
  8
_1-f_寸法
  6
CONTINUOUS
 62
    4
 10
285.00000000000006
 20
251.66666666666666
 11
285.00000000000006
 21
258.26666666666659
  0
POINT
  8
_1-f_寸法
 62
    4
 10
285.00000000000006
 20
256.66666666666663
  0
POINT
  8
_1-f_寸法
 62
    4
 10
355
 20
256.66666666666663
  0
LINE
  8
_1-f_寸法
  6
CONTINUOUS
 62
    4
 10
285.00000000000006
 20
256.66666666666663
 11
355
 21
256.66666666666663
  0
TEXT
  8
_1-f_寸法
 62
    4
 10
317.60000000000002
 20
256.66666666666663
 40
3.2000000000000002
 41
1
 50
0
  1
210
  0
LINE
  8
_1-f_寸法
  6
CONTINUOUS
 62
    4
 10
354.99999999999983
 20
246.66666666666666
 11
354.99999999999983
 21
230
  0
CIRCLE
  8
_1-f_寸法
  6
CONTINUOUS
 62
    4
 10
296.6666666666668
 20
238.33333331469979
 40
1.6666666666666665
  0
TEXT
  8
_1-f_寸法
 62
    4
 10
296.0416666666668
 20
237.08333331469979
 40
2.5
 41
1
 50
0
  1
3
  0
LINE
  8
_1-f_寸法
  6
CONTINUOUS
 62
    4
 10
295.83333333333348
 20
236.88995764172572
 11
291.7916666666664
 21
229.88958562780084
  0
CIRCLE
  8
_1-f_寸法
  6
CONTINUOUS
 62
    4
 10
321.66666666666669
 20
231.66666031374069
 40
1.6666666666666665
  0
TEXT
  8
_1-f_寸法
 62
    4
 10
321.04166666666669
 20
230.41666031374069
 40
2.5
 41
1
 50
0
  1
1
  0
LINE
  8
_1-f_寸法
  6
CONTINUOUS
 62
    4
 10
323.73550513126293
 20
228.08332698040743
 11
322.5
 21
230.22328464076662
  0
CIRCLE
  8
_1-f_寸法
  6
CONTINUOUS
 62
    4
 10
334.16669949781641
 20
231.66666666719368
 40
1.6666666666666665
  0
TEXT
  8
_1-f_寸法
 62
    4
 10
333.54169949781641
 20
230.41666666719368
 40
2.5
 41
1
 50
0
  1
7
  0
LINE
  8
_1-f_寸法
  6
CONTINUOUS
 62
    4
 10
337.66668308333294
 20
229.33673900052702
 11
335.55407074325427
 21
230.74309815045547
  0
CIRCLE
  8
_1-f_寸法
  6
CONTINUOUS
 62
    4
 10
297.50003283114989
 20
231.66666666719368
 40
1.6666666666666665
  0
TEXT
  8
_1-f_寸法
 62
    4
 10
296.87503283114989
 20
230.41666666719368
 40
2.5
 41
1
 50
0
  1
7
  0
LINE
  8
_1-f_寸法
  6
CONTINUOUS
 62
    4
 10
301.00001641666643
 20
229.33673900052702
 11
298.88740407658776
 21
230.74309815045547
  0
CIRCLE
  8
_1-f_寸法
  6
CONTINUOUS
 62
    4
 10
351.66666665793366
 20
231.66666664803324
 40
1.6666666666666665
  0
TEXT
  8
_1-f_寸法
 62
    4
 10
351.04166665793366
 20
230.41666664803324
 40
2.5
 41
1
 50
0
  1
2
  0
LINE
  8
_1-f_寸法
  6
CONTINUOUS
 62
    4
 10
348.70293386507899
 20
226.53333087075094
 11
350.83333332460035
 21
230.22329097505917
  0
CIRCLE
  8
_1-f_寸法
  6
CONTINUOUS
 62
    4
 10
345.00000000000006
 20
231.66666666666666
 40
1.6666666666666665
  0
TEXT
  8
_1-f_寸法
 62
    4
 10
344.37500000000006
 20
230.41666666666666
 40
2.5
 41
1
 50
0
  1
5
  0
LINE
  8
_1-f_寸法
  6
CONTINUOUS
 62
    4
 10
343.99867172131763
 20
230.33433057690223
 11
337.79756608275289
 21
222.08333337990001
  0
CIRCLE
  8
_1-f_寸法
  6
CONTINUOUS
 62
    4
 10
290
 20
246.66666666666663
 40
1.6666666666666665
  0
CIRCLE
  8
_1-f_寸法
  6
CONTINUOUS
 62
    4
 10
290
 20
246.66666666666663
 40
1.6666666666666665
  0
LINE
  8
_1-f_寸法
  6
CONTINUOUS
 62
    4
 10
288.82148869802245
 20
245.48815536468908
 11
286.5
 21
243.16666666666663
  0
TEXT
  8
_1-f_寸法
 62
    4
 10
288.75
 20
245.41666666666663
 40
2.5
 41
1
 50
0
  1
11
  0
CIRCLE
  8
_1-f_寸法
  6
CONTINUOUS
 62
    4
 10
61.666666587200154
 20
225
 40
1.6666666666666665
  0
CIRCLE
  8
_1-f_寸法
  6
CONTINUOUS
 62
    4
 10
61.666666587200154
 20
225
 40
1.6666666666666665
  0
LINE
  8
_1-f_寸法
  6
CONTINUOUS
 62
    4
 10
62.845177889177705
 20
223.82148869802245
 11
65.166666587200154
 21
221.5
  0
TEXT
  8
_1-f_寸法
 62
    4
 10
60.416666587200154
 20
223.75
 40
2.5
 41
1
 50
0
  1
11
  0
CIRCLE
  8
_1-f_寸法
  6
CONTINUOUS
 62
    4
 10
141.66666666666657
 20
231.66666666666652
 40
1.6666666666666665
  0
TEXT
  8
_1-f_寸法
 62
    4
 10
141.04166666666657
 20
230.41666666666652
 40
2.5
 41
1
 50
0
  1
7
  0
LINE
  8
_1-f_寸法
  6
CONTINUOUS
 62
    4
 10
140.33333333333323
 20
230.66667843456526
 11
138.99999999999989
 21
229.66669020246391
  0
CIRCLE
  8
_1-f_寸法
  6
CONTINUOUS
 62
    4
 10
133.33333333333331
 20
231.66666666666657
 40
1.6666666666666665
  0
TEXT
  8
_1-f_寸法
 62
    4
 10
132.70833333333331
 20
230.41666666666657
 40
2.5
 41
1
 50
0
  1
2
  0
CIRCLE
  8
_1-f_寸法
  6
CONTINUOUS
 62
    4
 10
126.66666666666666
 20
231.66666666666657
 40
1.6666666666666665
  0
TEXT
  8
_1-f_寸法
 62
    4
 10
126.04166666666666
 20
230.41666666666657
 40
2.5
 41
1
 50
0
  1
1
  0
LINE
  8
_1-f_寸法
  6
CONTINUOUS
 62
    4
 10
125.83333333333333
 20
230.2232909936925
 11
124.61714919644706
 21
228.11679827724629
  0
LINE
  8
_1-f_寸法
  6
CONTINUOUS
 62
    4
 10
132.5
 20
230.2232909936925
 11
130.36960052972069
 21
226.53333087075094
  0
CIRCLE
  8
_1-f_寸法
  6
CONTINUOUS
 62
    4
 10
146.66666666666666
 20
231.66666666666666
 40
1.6666666666666665
  0
TEXT
  8
_1-f_寸法
 62
    4
 10
146.04166666666666
 20
230.41666666666666
 40
2.5
 41
1
 50
0
  1
5
  0
CIRCLE
  8
_1-f_寸法
  6
CONTINUOUS
 62
    4
 10
76.666666666666657
 20
231.66666666666657
 40
1.6666666666666665
  0
TEXT
  8
_1-f_寸法
 62
    4
 10
76.041666666666657
 20
230.41666666666657
 40
2.5
 41
1
 50
0
  1
3
  0
LINE
  8
_1-f_寸法
  6
CONTINUOUS
 62
    4
 10
77.5
 20
230.2232909936925
 11
79.178140329192871
 21
227.31666668130015
  0
CIRCLE
  8
_1-f_寸法
  6
CONTINUOUS
 62
    4
 10
90.000000079466489
 20
231.66666666666657
 40
1.6666666666666665
  0
TEXT
  8
_1-f_寸法
 62
    4
 10
89.375000079466489
 20
230.41666666666657
 40
2.5
 41
1
 50
0
  1
4
  0
LINE
  8
_1-f_寸法
  6
CONTINUOUS
 62
    4
 10
89.16666674613316
 20
230.2232909936925
 11
83.601613100375801
 21
220.58433533239446
  0
CIRCLE
  8
_1-f_寸法
  6
CONTINUOUS
 62
    4
 10
85.000000000000057
 20
231.66666666666652
 40
1.6666666666666665
  0
TEXT
  8
_1-f_寸法
 62
    4
 10
84.375000000000057
 20
230.41666666666652
 40
2.5
 41
1
 50
0
  1
7
  0
LINE
  8
_1-f_寸法
  6
CONTINUOUS
 62
    4
 10
83.666666666666714
 20
230.66667843456526
 11
82.333333333333371
 21
229.66669020246391
  0
LINE
  8
_1-f_寸法
  6
CONTINUOUS
 62
    4
 10
145.53401258736039
 20
230.44401687444946
 11
137.7887347662591
 21
222.08333333333331
  0
CIRCLE
  8
_1-f_寸法
  6
CONTINUOUS
 62
    4
 10
79.999999920533469
 20
215
 40
1.6666666666666665
  0
CIRCLE
  8
_1-f_寸法
  6
CONTINUOUS
 62
    4
 10
66.666666587200154
 20
208.33333333333331
 40
1.6666666666666665
  0
CIRCLE
  8
_1-f_寸法
  6
CONTINUOUS
 62
    4
 10
66.666666587200154
 20
215
 40
1.6666666666666665
  0
TEXT
  8
_1-f_寸法
 62
    4
 10
66.041666587200154
 20
213.75
 40
2.5
 41
1
 50
0
  1
8
  0
TEXT
  8
_1-f_寸法
 62
    4
 10
79.374999920533469
 20
213.75
 40
2.5
 41
1
 50
0
  1
9
  0
TEXT
  8
_1-f_寸法
 62
    4
 10
65.416666587200154
 20
207.08333333333331
 40
2.5
 41
1
 50
0
  1
10
  0
LINE
  8
_1-f_寸法
  6
CONTINUOUS
 62
    4
 10
67.631536452334217
 20
209.69230497436706
 11
72.583333253867011
 21
216.66666666666657
  0
CIRCLE
  8
_1-f_寸法
  6
CONTINUOUS
 62
    4
 10
275
 20
236.66666666666666
 40
1.6666666666666665
  0
TEXT
  8
_1-f_寸法
 62
    4
 10
274.375
 20
235.41666666666666
 40
2.5
 41
1
 50
0
  1
9
  0
CIRCLE
  8
_1-f_寸法
  6
CONTINUOUS
 62
    4
 10
280
 20
226.66666666666666
 40
1.6666666666666665
  0
TEXT
  8
_1-f_寸法
 62
    4
 10
279.375
 20
225.41666666666666
 40
2.5
 41
1
 50
0
  1
8
  0
CIRCLE
  8
_1-f_寸法
  6
CONTINUOUS
 62
    4
 10
273.33333333333331
 20
226.66666666666666
 40
1.6666666666666665
  0
TEXT
  8
_1-f_寸法
 62
    4
 10
272.08333333333331
 20
225.41666666666666
 40
2.5
 41
1
 50
0
  1
10
  0
LINE
  8
_1-f_寸法
  6
CONTINUOUS
 62
    4
 10
274.8180590883743
 20
227.42387681589588
 11
281.66666666666657
 21
230.91666674613333
  0
LINE
  8
_1-f_寸法
  6
CONTINUOUS
 62
    4
 10
65
 20
230
 11
65
 21
236.59999999999997
  0
LINE
  8
_1-f_寸法
  6
CONTINUOUS
 62
    4
 10
154.99999999999989
 20
230
 11
154.99999999999989
 21
236.59999999999997
  0
POINT
  8
_1-f_寸法
 62
    4
 10
154.99999999999989
 20
235
  0
POINT
  8
_1-f_寸法
 62
    4
 10
65
 20
235
  0
LINE
  8
_1-f_寸法
  6
CONTINUOUS
 62
    4
 10
154.99999999999989
 20
235
 11
65
 21
235
  0
TEXT
  8
_1-f_寸法
 62
    4
 10
107.59999999999994
 20
235
 40
3.2000000000000002
 41
1
 50
0
  1
270
  0
LINE
  8
_1-f_寸法
  6
CONTINUOUS
 62
    4
 10
135
 20
163.33333333333331
 11
135
 21
156.73333333333329
  0
LINE
  8
_1-f_寸法
  6
CONTINUOUS
 62
    4
 10
85
 20
163.33333333333331
 11
85
 21
156.73333333333329
  0
POINT
  8
_1-f_寸法
 62
    4
 10
85
 20
158.33333333333331
  0
POINT
  8
_1-f_寸法
 62
    4
 10
135
 20
158.33333333333331
  0
LINE
  8
_1-f_寸法
  6
CONTINUOUS
 62
    4
 10
85
 20
158.33333333333331
 11
135
 21
158.33333333333331
  0
TEXT
  8
_1-f_寸法
 62
    4
 10
107.59999999999999
 20
158.33333333333331
 40
3.2000000000000002
 41
1
 50
0
  1
150
  0
LINE
  8
_1-f_寸法
  6
CONTINUOUS
 62
    4
 10
335
 20
163.33333333333329
 11
335
 21
156.73333333333329
  0
LINE
  8
_1-f_寸法
  6
CONTINUOUS
 62
    4
 10
285
 20
163.33333333333329
 11
285
 21
156.73333333333329
  0
POINT
  8
_1-f_寸法
 62
    4
 10
285
 20
158.33333333333329
  0
POINT
  8
_1-f_寸法
 62
    4
 10
335
 20
158.33333333333329
  0
LINE
  8
_1-f_寸法
  6
CONTINUOUS
 62
    4
 10
285
 20
158.33333333333329
 11
335
 21
158.33333333333329
  0
TEXT
  8
_1-f_寸法
 62
    4
 10
307.59999999999997
 20
158.33333333333329
 40
3.2000000000000002
 41
1
 50
0
  1
150
  0
TEXT
  8
_0-f_
 62
    4
 10
230
 20
270
 40
3.2000000000000002
 41
1
 50
0
  1
◇外壁＋外壁コーナー（１５０ＳＣＧ－Ｓ）　Ｓ＝１／３
  0
LINE
  8
_1-f_寸法
  6
CONTINUOUS
 62
    4
 10
287.37414646916693
 20
231.66666666666669
 11
281.37946388245598
 21
227.60200466695176
  0
LINE
  8
_1-f_寸法
  6
CONTINUOUS
 62
    4
 10
286.58333333333371
 20
233.62500007946653
 11
276.61201600562879
 21
236.2433675107801
  0
LINE
  8
_1-f_寸法
  6
CONTINUOUS
 62
    4
 10
79.999999920533469
 20
215
 11
75.29166666666697
 21
221.5833333333334
  0
LINE
  8
_1-f_寸法
  6
CONTINUOUS
 62
    4
 10
73.33333337306658
 20
222.36504737695
 11
66.666666587200154
 21
215
  0
LINE
  8
_0-0_図面枠
  6
CONTINUOUS
 62
    4
 10
182.14999999999998
 20
56.199999999999989
 11
40
 21
56.199999999999989
  0
LINE
  8
_0-0_図面枠
  6
CONTINUOUS
 62
    4
 10
182.14999999999998
 20
68.199999999999989
 11
40
 21
68.199999999999989
  0
LINE
  8
_0-0_図面枠
  6
CONTINUOUS
 62
    4
 10
182.14999999999998
 20
62.199999999999989
 11
40
 21
62.199999999999989
  0
LINE
  8
_0-0_図面枠
  6
CONTINUOUS
 62
    4
 10
182.14999999999998
 20
74.199999999999989
 11
40
 21
74.199999999999989
  0
LINE
  8
_0-0_図面枠
  6
CONTINUOUS
 62
    4
 10
182.14999999999998
 20
110.20000000000005
 11
40
 21
110.20000000000005
  0
LINE
  8
_0-0_図面枠
  6
CONTINUOUS
 62
    4
 10
182.14999999999998
 20
104.20000000000005
 11
40
 21
104.20000000000005
  0
LINE
  8
_0-0_図面枠
  6
CONTINUOUS
 62
    4
 10
182.14999999999998
 20
98.200000000000045
 11
40
 21
98.200000000000045
  0
LINE
  8
_0-0_図面枠
  6
CONTINUOUS
 62
    4
 10
182.14999999999998
 20
92.200000000000045
 11
40
 21
92.200000000000045
  0
LINE
  8
_0-0_図面枠
  6
CONTINUOUS
 62
    4
 10
182.14999999999998
 20
86.200000000000045
 11
40
 21
86.200000000000045
  0
LINE
  8
_0-0_図面枠
  6
CONTINUOUS
 62
    4
 10
182.14999999999998
 20
80.199999999999989
 11
40
 21
80.199999999999989
  0
LINE
  8
_0-0_図面枠
  6
CONTINUOUS
 62
    4
 10
182.14999999999998
 20
121
 11
40
 21
121
  0
LINE
  8
_0-0_図面枠
  6
CONTINUOUS
 62
    4
 10
182.14999999999998
 20
50.199999999999989
 11
40
 21
50.199999999999989
  0
LINE
  8
_0-0_図面枠
  6
CONTINUOUS
 62
    4
 10
182.14999999999998
 20
44.199999999999989
 11
40
 21
44.199999999999989
  0
TEXT
  8
_0-0_図面枠
 62
    4
 10
165.55126400000003
 20
116.20001049999996
 40
3.2000000000000002
 41
1
 50
0
  1
使用
  0
TEXT
  8
_0-0_図面枠
 62
    4
 10
150.50638249999997
 20
116.20001049999996
 40
3.2000000000000002
 41
1
 50
0
  1
定　尺
  0
TEXT
  8
_0-0_図面枠
 62
    4
 10
148.3435475
 20
111.40000399999997
 40
3.2000000000000002
 41
1
 50
0
  1
（ｍｍ）
  0
TEXT
  8
_0-0_図面枠
 62
    4
 10
165.55126400000003
 20
111.40000399999997
 40
3.2000000000000002
 41
1
 50
0
  1
数量
  0
TEXT
  8
_0-0_図面枠
 62
    4
 10
40.497068000000013
 20
105.42754949999994
 40
3.2000000000000002
 41
1
 50
0
  1
　１
  0
TEXT
  8
_0-0_図面枠
 62
    4
 10
149.27047700000003
 20
105.40000399999997
 40
3.2000000000000002
 41
1
 50
0
  1
３０００
  0
TEXT
  8
_0-0_図面枠
 62
    4
 10
177.00512500000002
 20
105.40000399999997
 40
3.2000000000000002
 41
1
 50
0
  1
本
  0
TEXT
  8
_0-0_図面枠
 62
    4
 10
43.586831999999958
 20
99.427549499999941
 40
3.2000000000000002
 41
1
 50
0
  1
２
  0
TEXT
  8
_0-0_図面枠
 62
    4
 10
43.586831999999958
 20
93.427549499999941
 40
3.2000000000000002
 41
1
 50
0
  1
３
  0
TEXT
  8
_0-0_図面枠
 62
    4
 10
43.586831999999958
 20
87.427549499999941
 40
3.2000000000000002
 41
1
 50
0
  1
４
  0
TEXT
  8
_0-0_図面枠
 62
    4
 10
169.36022149999994
 20
87.450002999999924
 40
3.2000000000000002
 41
1
 50
0
  1
１
  0
TEXT
  8
_0-0_図面枠
 62
    4
 10
43.586831999999958
 20
81.427560999999969
 40
3.2000000000000002
 41
1
 50
0
  1
５
  0
TEXT
  8
_0-0_図面枠
 62
    4
 10
177.00512500000002
 20
81.399992499999996
 40
3.2000000000000002
 41
1
 50
0
  1
本
  0
TEXT
  8
_0-0_図面枠
 62
    4
 10
43.586831999999958
 20
75.427560999999969
 40
3.2000000000000002
 41
1
 50
0
  1
６
  0
TEXT
  8
_0-0_図面枠
 62
    4
 10
43.586831999999958
 20
69.427555499999983
 40
3.2000000000000002
 41
1
 50
0
  1
７
  0
TEXT
  8
_0-0_図面枠
 62
    4
 10
48.400007500000015
 20
69.40000950000001
 40
3.2000000000000002
 41
1
 50
0
  1
ステンセットシルタップ
  0
TEXT
  8
_0-0_図面枠
 62
    4
 10
43.586831999999958
 20
63.427555499999983
 40
3.2000000000000002
 41
1
 50
0
  1
８
  0
TEXT
  8
_0-0_図面枠
 62
    4
 10
166.27045749999999
 20
63.450008499999967
 40
3.2000000000000002
 41
1
 50
0
  1
１２
  0
TEXT
  8
_0-0_図面枠
 62
    4
 10
43.586831999999958
 20
57.427555499999983
 40
3.2000000000000002
 41
1
 50
0
  1
９
  0
LINE
  8
_0-0_図面枠
  6
CONTINUOUS
 62
    4
 10
382.15000000000009
 20
110.19999999999999
 11
240
 21
110.19999999999999
  0
LINE
  8
_0-0_図面枠
  6
CONTINUOUS
 62
    4
 10
382.15000000000009
 20
104.19999999999999
 11
240
 21
104.19999999999999
  0
LINE
  8
_0-0_図面枠
  6
CONTINUOUS
 62
    4
 10
382.15000000000009
 20
98.199999999999989
 11
240
 21
98.199999999999989
  0
LINE
  8
_0-0_図面枠
  6
CONTINUOUS
 62
    4
 10
382.15000000000009
 20
92.199999999999989
 11
240
 21
92.199999999999989
  0
LINE
  8
_0-0_図面枠
  6
CONTINUOUS
 62
    4
 10
382.15000000000009
 20
86.199999999999989
 11
240
 21
86.199999999999989
  0
LINE
  8
_0-0_図面枠
  6
CONTINUOUS
 62
    4
 10
382.15000000000009
 20
80.199999999999989
 11
240
 21
80.199999999999989
  0
LINE
  8
_0-0_図面枠
  6
CONTINUOUS
 62
    4
 10
382.15000000000009
 20
74.199999999999989
 11
240
 21
74.199999999999989
  0
LINE
  8
_0-0_図面枠
  6
CONTINUOUS
 62
    4
 10
382.15000000000009
 20
68.199999999999989
 11
240
 21
68.199999999999989
  0
LINE
  8
_0-0_図面枠
  6
CONTINUOUS
 62
    4
 10
382.15000000000009
 20
62.199999999999989
 11
240
 21
62.199999999999989
  0
LINE
  8
_0-0_図面枠
  6
CONTINUOUS
 62
    4
 10
382.15000000000009
 20
56.199999999999989
 11
240
 21
56.199999999999989
  0
LINE
  8
_0-0_図面枠
  6
CONTINUOUS
 62
    4
 10
382.15000000000009
 20
44.199999999999989
 11
240
 21
44.199999999999989
  0
LINE
  8
_0-0_図面枠
  6
CONTINUOUS
 62
    4
 10
382.15000000000009
 20
121
 11
240
 21
121
  0
LINE
  8
_0-0_図面枠
  6
CONTINUOUS
 62
    4
 10
382.15000000000009
 20
50.199999999999989
 11
240
 21
50.199999999999989
  0
TEXT
  8
_0-0_図面枠
 62
    4
 10
365.55123000000003
 20
116.20001050000002
 40
3.2000000000000002
 41
1
 50
0
  1
使用
  0
TEXT
  8
_0-0_図面枠
 62
    4
 10
350.50632500000006
 20
116.20002199999999
 40
3.2000000000000002
 41
1
 50
0
  1
定　尺
  0
TEXT
  8
_0-0_図面枠
 62
    4
 10
348.34349000000003
 20
111.400015
 40
3.2000000000000002
 41
1
 50
0
  1
（ｍｍ）
  0
TEXT
  8
_0-0_図面枠
 62
    4
 10
365.55123000000003
 20
111.40000400000002
 40
3.2000000000000002
 41
1
 50
0
  1
数量
  0
TEXT
  8
_0-0_図面枠
 62
    4
 10
240.4970505
 20
105.4275495
 40
3.2000000000000002
 41
1
 50
0
  1
　１
  0
TEXT
  8
_0-0_図面枠
 62
    4
 10
243.5868145
 20
99.427549499999998
 40
3.2000000000000002
 41
1
 50
0
  1
２
  0
TEXT
  8
_0-0_図面枠
 62
    4
 10
243.5868145
 20
93.427549499999998
 40
3.2000000000000002
 41
1
 50
0
  1
３
  0
TEXT
  8
_0-0_図面枠
 62
    4
 10
243.5868145
 20
87.427549499999998
 40
3.2000000000000002
 41
1
 50
0
  1
４
  0
TEXT
  8
_0-0_図面枠
 62
    4
 10
243.5868145
 20
81.427560999999997
 40
3.2000000000000002
 41
1
 50
0
  1
５
  0
TEXT
  8
_0-0_図面枠
 62
    4
 10
243.5868145
 20
75.427560999999997
 40
3.2000000000000002
 41
1
 50
0
  1
６
  0
TEXT
  8
_0-0_図面枠
 62
    4
 10
243.5868145
 20
69.427560999999997
 40
3.2000000000000002
 41
1
 50
0
  1
７
  0
TEXT
  8
_0-0_図面枠
 62
    4
 10
243.5868145
 20
63.427555499999983
 40
3.2000000000000002
 41
1
 50
0
  1
８
  0
TEXT
  8
_0-0_図面枠
 62
    4
 10
243.5868145
 20
57.427555499999983
 40
3.2000000000000002
 41
1
 50
0
  1
９
  0
TEXT
  8
_0-0_図面枠
 62
    4
 10
240.4970505
 20
51.427555499999983
 40
3.2000000000000002
 41
1
 50
0
  1
１０
  0
TEXT
  8
_0-0_図面枠
 62
    4
 10
240.4970505
 20
45.427555499999983
 40
3.2000000000000002
 41
1
 50
0
  1
１１
  0
TEXT
  8
_0-0_図面枠
 62
    4
 10
169.36022149999994
 20
105.44999150000001
 40
3.2000000000000002
 41
1
 50
0
  1
１
  0
TEXT
  8
_0-0_図面枠
 62
    4
 10
48.400007500000015
 20
87.400003999999967
 40
3.2000000000000002
 41
1
 50
0
  1
ＳＳＧばねフレーム
  0
TEXT
  8
_0-0_図面枠
 62
    4
 10
149.27047700000003
 20
87.400003999999967
 40
3.2000000000000002
 41
1
 50
0
  1
３０００
  0
TEXT
  8
_0-0_図面枠
 62
    4
 10
169.36022149999994
 20
93.44999150000001
 40
3.2000000000000002
 41
1
 50
0
  1
６
  0
TEXT
  8
_0-0_図面枠
 62
    4
 10
149.27047700000003
 20
81.400003999999967
 40
3.2000000000000002
 41
1
 50
0
  1
３０００
  0
TEXT
  8
_0-0_図面枠
 62
    4
 10
169.36022149999994
 20
81.450002999999924
 40
3.2000000000000002
 41
1
 50
0
  1
１
  0
TEXT
  8
_0-0_図面枠
 62
    4
 10
48.400007500000015
 20
75.400003999999967
 40
3.2000000000000002
 41
1
 50
0
  1
止水補助板
  0
TEXT
  8
_0-0_図面枠
 62
    4
 10
177.00512500000002
 20
93.400004000000024
 40
3.2000000000000002
 41
1
 50
0
  1
個
  0
TEXT
  8
_0-0_図面枠
 62
    4
 10
178.54999999999998
 20
118.80000000000001
 40
3.2000000000000002
 41
1
 50
0
  1
単位
  7
TATEGAKI
  0
TEXT
  8
_0-0_図面枠
 62
    4
 10
378.55000000000007
 20
118.80000000000001
 40
3.2000000000000002
 41
1
 50
0
  1
単位
  7
TATEGAKI
  0
TEXT
  8
_0-0_図面枠
 62
    4
 10
48.400007500000015
 20
63.40000950000001
 40
3.2000000000000002
 41
1
 50
0
  1
ステンタッピンねじ
  0
TEXT
  8
_0-0_図面枠
 62
    4
 10
48.400007500000015
 20
57.40000950000001
 40
3.2000000000000002
 41
1
 50
0
  1
ステンワッシャー
  0
TEXT
  8
_0-0_図面枠
 62
    4
 10
169.36022149999994
 20
45.449997499999995
 40
3.2000000000000002
 41
1
 50
0
  1
２
  0
TEXT
  8
_0-0_図面枠
 62
    4
 10
177.00512500000002
 20
45.40000950000001
 40
3.2000000000000002
 41
1
 50
0
  1
本
  0
TEXT
  8
_0-0_図面枠
 62
    4
 10
166.27045749999999
 20
57.450008499999967
 40
3.2000000000000002
 41
1
 50
0
  1
１２
  0
TEXT
  8
_0-0_図面枠
 62
    4
 10
177.00512500000002
 20
69.399992499999996
 40
3.2000000000000002
 41
1
 50
0
  1
本
  0
TEXT
  8
_0-0_図面枠
 62
    4
 10
40.4970505
 20
51.427555499999983
 40
3.2000000000000002
 41
1
 50
0
  1
１０
  0
TEXT
  8
_0-0_図面枠
 62
    4
 10
40.4970505
 20
45.427555499999983
 40
3.2000000000000002
 41
1
 50
0
  1
１１
  0
TEXT
  8
_0-0_図面枠
 62
    4
 10
349.27047700000014
 20
105.40000399999997
 40
3.2000000000000002
 41
1
 50
0
  1
３０００
  0
TEXT
  8
_0-0_図面枠
 62
    4
 10
377.00512500000013
 20
105.40000399999997
 40
3.2000000000000002
 41
1
 50
0
  1
本
  0
TEXT
  8
_0-0_図面枠
 62
    4
 10
369.36022150000008
 20
87.450002999999924
 40
3.2000000000000002
 41
1
 50
0
  1
１
  0
TEXT
  8
_0-0_図面枠
 62
    4
 10
377.00512500000013
 20
81.399992499999996
 40
3.2000000000000002
 41
1
 50
0
  1
本
  0
TEXT
  8
_0-0_図面枠
 62
    4
 10
248.4000075000001
 20
69.40000950000001
 40
3.2000000000000002
 41
1
 50
0
  1
ステンセットシルタップ
  0
TEXT
  8
_0-0_図面枠
 62
    4
 10
366.27045750000013
 20
63.450008499999967
 40
3.2000000000000002
 41
1
 50
0
  1
１２
  0
TEXT
  8
_0-0_図面枠
 62
    4
 10
369.36022150000008
 20
105.44999150000001
 40
3.2000000000000002
 41
1
 50
0
  1
１
  0
TEXT
  8
_0-0_図面枠
 62
    4
 10
349.27047700000014
 20
87.400003999999967
 40
3.2000000000000002
 41
1
 50
0
  1
３０００
  0
TEXT
  8
_0-0_図面枠
 62
    4
 10
369.36022150000008
 20
93.44999150000001
 40
3.2000000000000002
 41
1
 50
0
  1
６
  0
TEXT
  8
_0-0_図面枠
 62
    4
 10
349.27047700000014
 20
81.400003999999967
 40
3.2000000000000002
 41
1
 50
0
  1
３０００
  0
TEXT
  8
_0-0_図面枠
 62
    4
 10
369.36022150000008
 20
81.450002999999924
 40
3.2000000000000002
 41
1
 50
0
  1
１
  0
TEXT
  8
_0-0_図面枠
 62
    4
 10
248.4000075000001
 20
75.400003999999967
 40
3.2000000000000002
 41
1
 50
0
  1
止水補助板
  0
TEXT
  8
_0-0_図面枠
 62
    4
 10
377.00512500000013
 20
93.400004000000024
 40
3.2000000000000002
 41
1
 50
0
  1
個
  0
TEXT
  8
_0-0_図面枠
 62
    4
 10
248.4000075000001
 20
63.40000950000001
 40
3.2000000000000002
 41
1
 50
0
  1
ステンタッピンねじ
  0
TEXT
  8
_0-0_図面枠
 62
    4
 10
248.4000075000001
 20
57.40000950000001
 40
3.2000000000000002
 41
1
 50
0
  1
ステンワッシャー
  0
TEXT
  8
_0-0_図面枠
 62
    4
 10
369.36022150000008
 20
45.449997499999995
 40
3.2000000000000002
 41
1
 50
0
  1
２
  0
TEXT
  8
_0-0_図面枠
 62
    4
 10
377.00512500000013
 20
45.40000950000001
 40
3.2000000000000002
 41
1
 50
0
  1
本
  0
TEXT
  8
_0-0_図面枠
 62
    4
 10
366.27045750000013
 20
57.450008499999967
 40
3.2000000000000002
 41
1
 50
0
  1
１２
  0
TEXT
  8
_0-0_図面枠
 62
    4
 10
377.00512500000013
 20
69.399992499999996
 40
3.2000000000000002
 41
1
 50
0
  1
本
  0
TEXT
  8
_0-0_図面枠
 62
    4
 10
248.4000075000001
 20
87.400003999999967
 40
3.2000000000000002
 41
1
 50
0
  1
ＳＣＧばねフレーム
  0
TEXT
  8
_0-0_図面枠
 62
    4
 10
377.00512500000013
 20
57.40000950000001
 40
3.2000000000000002
 41
1
 50
0
  1
枚
  0
TEXT
  8
_0-0_図面枠
 62
    4
 10
177.00512500000002
 20
87.400003999999967
 40
3.2000000000000002
 41
1
 50
0
  1
本
  0
TEXT
  8
_0-0_図面枠
 62
    4
 10
177.00512500000002
 20
57.40000950000001
 40
3.2000000000000002
 41
1
 50
0
  1
枚
  0
TEXT
  8
_0-0_図面枠
 62
    4
 10
177.00512500000002
 20
63.399992499999996
 40
3.2000000000000002
 41
1
 50
0
  1
本
  0
TEXT
  8
_0-0_図面枠
 62
    4
 10
377.00512500000013
 20
63.399992499999996
 40
3.2000000000000002
 41
1
 50
0
  1
本
  0
TEXT
  8
_0-0_図面枠
 62
    4
 10
302.06669116666689
 20
63.40000950000001
 40
3.2000000000000002
 41
1
 50
0
  1
なべ５×５０
  0
TEXT
  8
_0-0_図面枠
 62
    4
 10
302.06663366666686
 20
57.400003999999996
 40
3.2000000000000002
 41
1
 50
0
  1
１．５×１８×５．５穴
  0
TEXT
  8
_0-0_図面枠
 62
    4
 10
302.06667966666686
 20
69.40000950000001
 40
3.2000000000000002
 41
1
 50
0
  1
４×１９
  0
TEXT
  8
_0-0_図面枠
 62
    4
 10
102.06669116666677
 20
63.40000950000001
 40
3.2000000000000002
 41
1
 50
0
  1
なべ５×５０
  0
TEXT
  8
_0-0_図面枠
 62
    4
 10
102.06663366666675
 20
57.400003999999996
 40
3.2000000000000002
 41
1
 50
0
  1
１．５×１８×５．５穴
  0
TEXT
  8
_0-0_図面枠
 62
    4
 10
102.06667966666674
 20
69.40000950000001
 40
3.2000000000000002
 41
1
 50
0
  1
４×１９
  0
TEXT
  8
_0-0_図面枠
 62
    4
 10
67.633333333333383
 20
114.00000000000003
 40
3.2000000000000002
 41
1
 50
0
  1
部材名称
  0
TEXT
  8
_0-0_図面枠
 62
    4
 10
119.10833333333338
 20
114.00000000000001
 40
3.2000000000000002
 41
1
 50
0
  1
規　格
  0
TEXT
  8
_0-0_図面枠
 62
    4
 10
319.10833333333335
 20
114
 40
3.2000000000000002
 41
1
 50
0
  1
規　格
  0
TEXT
  8
_0-0_図面枠
 62
    4
 10
267.63333333333333
 20
114
 40
3.2000000000000002
 41
1
 50
0
  1
部材名称
  0
TEXT
  8
_0-0_図面枠
 62
    4
 10
48.400007500000015
 20
99.400003999999967
 40
3.2000000000000002
 41
1
 50
0
  1
ＳＳＧアーム(Ｃ)
  0
TEXT
  8
_0-0_図面枠
 62
    4
 10
48.400007500000015
 20
93.400003999999967
 40
3.2000000000000002
 41
1
 50
0
  1
ＳＳＧばね(Ｃ)
  0
TEXT
  8
_0-0_図面枠
 62
    4
 10
48.400007500000015
 20
81.400003999999967
 40
3.2000000000000002
 41
1
 50
0
  1
ＳＳＧフレーム(Ｃ)
  0
TEXT
  8
_0-0_図面枠
 62
    4
 10
248.4000075000001
 20
99.400003999999967
 40
3.2000000000000002
 41
1
 50
0
  1
ＳＣＧアーム(Ｃ)
  0
TEXT
  8
_0-0_図面枠
 62
    4
 10
248.4000075000001
 20
93.400003999999967
 40
3.2000000000000002
 41
1
 50
0
  1
ＳＣＧばね(Ｃ)
  0
TEXT
  8
_0-0_図面枠
 62
    4
 10
248.4000075000001
 20
81.400003999999967
 40
3.2000000000000002
 41
1
 50
0
  1
ＳＳＧフレーム(Ｃ)
  0
TEXT
  8
_0-0_図面枠
 62
    4
 10
369.36022150000008
 20
99.449991499999953
 40
3.2000000000000002
 41
1
 50
0
  1
６
  0
TEXT
  8
_0-0_図面枠
 62
    4
 10
377.00512500000013
 20
99.400003999999967
 40
3.2000000000000002
 41
1
 50
0
  1
個
  0
TEXT
  8
_0-0_図面枠
 62
    4
 10
169.36022149999994
 20
99.44999150000001
 40
3.2000000000000002
 41
1
 50
0
  1
６
  0
TEXT
  8
_0-0_図面枠
 62
    4
 10
177.00512500000002
 20
99.400004000000024
 40
3.2000000000000002
 41
1
 50
0
  1
個
  0
TEXT
  8
_0-0_図面枠
 62
    4
 10
122.30833333333341
 20
105.60000000000007
 40
3.2000000000000002
 41
1
 50
0
  1
―
  0
TEXT
  8
_0-0_図面枠
 62
    4
 10
122.30833333333341
 20
93.600000000000065
 40
3.2000000000000002
 41
1
 50
0
  1
―
  0
TEXT
  8
_0-0_図面枠
 62
    4
 10
122.30833333333341
 20
87.600000000000065
 40
3.2000000000000002
 41
1
 50
0
  1
―
  0
TEXT
  8
_0-0_図面枠
 62
    4
 10
122.30833333333341
 20
81.600000000000065
 40
3.2000000000000002
 41
1
 50
0
  1
―
  0
TEXT
  8
_0-0_図面枠
 62
    4
 10
122.30833333333339
 20
45.599999999999994
 40
3.2000000000000002
 41
1
 50
0
  1
―
  0
TEXT
  8
_0-0_図面枠
 62
    4
 10
322.30833333333328
 20
105.60000000000001
 40
3.2000000000000002
 41
1
 50
0
  1
―
  0
TEXT
  8
_0-0_図面枠
 62
    4
 10
322.30833333333328
 20
93.600000000000009
 40
3.2000000000000002
 41
1
 50
0
  1
―
  0
TEXT
  8
_0-0_図面枠
 62
    4
 10
322.30833333333328
 20
87.600000000000009
 40
3.2000000000000002
 41
1
 50
0
  1
―
  0
TEXT
  8
_0-0_図面枠
 62
    4
 10
322.30833333333328
 20
81.600000000000009
 40
3.2000000000000002
 41
1
 50
0
  1
―
  0
TEXT
  8
_0-0_図面枠
 62
    4
 10
322.30833333333328
 20
45.599999999999994
 40
3.2000000000000002
 41
1
 50
0
  1
―
  0
TEXT
  8
_0-0_図面枠
 62
    4
 10
153.85000000000005
 20
93.600000000000051
 40
3.2000000000000002
 41
1
 50
0
  1
―
  0
TEXT
  8
_0-0_図面枠
 62
    4
 10
153.85000000000005
 20
69.599999999999994
 40
3.2000000000000002
 41
1
 50
0
  1
―
  0
TEXT
  8
_0-0_図面枠
 62
    4
 10
153.85000000000005
 20
63.599999999999994
 40
3.2000000000000002
 41
1
 50
0
  1
―
  0
TEXT
  8
_0-0_図面枠
 62
    4
 10
153.85000000000005
 20
57.599999999999994
 40
3.2000000000000002
 41
1
 50
0
  1
―
  0
TEXT
  8
_0-0_図面枠
 62
    4
 10
353.85000000000002
 20
93.599999999999994
 40
3.2000000000000002
 41
1
 50
0
  1
―
  0
TEXT
  8
_0-0_図面枠
 62
    4
 10
353.85000000000002
 20
69.599999999999994
 40
3.2000000000000002
 41
1
 50
0
  1
―
  0
TEXT
  8
_0-0_図面枠
 62
    4
 10
353.85000000000002
 20
63.599999999999994
 40
3.2000000000000002
 41
1
 50
0
  1
―
  0
TEXT
  8
_0-0_図面枠
 62
    4
 10
353.85000000000002
 20
57.599999999999994
 40
3.2000000000000002
 41
1
 50
0
  1
―
  0
TEXT
  8
_0-0_図面枠
 62
    4
 10
349.27047700000003
 20
75.400009499999996
 40
3.2000000000000002
 41
1
 50
0
  1
３１００
  0
TEXT
  8
_0-0_図面枠
 62
    4
 10
149.27047700000003
 20
75.400009499999996
 40
3.2000000000000002
 41
1
 50
0
  1
３１００
  0
TEXT
  8
_0-0_図面枠
 62
    4
 10
366.27045749999996
 20
51.450008499999953
 40
3.2000000000000002
 41
1
 50
0
  1
１２
  0
TEXT
  8
_0-0_図面枠
 62
    4
 10
377.00512500000002
 20
51.399992499999982
 40
3.2000000000000002
 41
1
 50
0
  1
本
  0
TEXT
  8
_0-0_図面枠
 62
    4
 10
353.85000000000002
 20
51.599999999999994
 40
3.2000000000000002
 41
1
 50
0
  1
―
  0
TEXT
  8
_0-0_図面枠
 62
    4
 10
302.06669116666671
 20
51.400009499999996
 40
3.2000000000000002
 41
1
 50
0
  1
φ８×４０
  0
TEXT
  8
_0-0_図面枠
 62
    4
 10
377.00512500000013
 20
87.399992499999996
 40
3.2000000000000002
 41
1
 50
0
  1
本
  0
TEXT
  8
_0-0_図面枠
 62
    4
 10
369.36022150000008
 20
75.450002999999924
 40
3.2000000000000002
 41
1
 50
0
  1
１
  0
TEXT
  8
_0-0_図面枠
 62
    4
 10
377.00512500000013
 20
75.399992499999996
 40
3.2000000000000002
 41
1
 50
0
  1
枚
  0
TEXT
  8
_0-0_図面枠
 62
    4
 10
169.36022149999994
 20
75.450002999999924
 40
3.2000000000000002
 41
1
 50
0
  1
１
  0
TEXT
  8
_0-0_図面枠
 62
    4
 10
177.00512500000002
 20
75.399992499999996
 40
3.2000000000000002
 41
1
 50
0
  1
枚
  0
TEXT
  8
_0-0_図面枠
 62
    4
 10
166.27045749999996
 20
51.450008499999939
 40
3.2000000000000002
 41
1
 50
0
  1
１２
  0
TEXT
  8
_0-0_図面枠
 62
    4
 10
177.00512500000002
 20
51.399992499999968
 40
3.2000000000000002
 41
1
 50
0
  1
本
  0
TEXT
  8
_0-0_図面枠
 62
    4
 10
153.85000000000005
 20
51.599999999999966
 40
3.2000000000000002
 41
1
 50
0
  1
―
  0
TEXT
  8
_0-0_図面枠
 62
    4
 10
102.06669116666671
 20
51.400009499999982
 40
3.2000000000000002
 41
1
 50
0
  1
φ８×４０
  0
TEXT
  8
_0-0_図面枠
 62
    4
 10
153.85000000000005
 20
99.600000000000051
 40
3.2000000000000002
 41
1
 50
0
  1
―
  0
TEXT
  8
_0-0_図面枠
 62
    4
 10
353.85000000000002
 20
99.599999999999994
 40
3.2000000000000002
 41
1
 50
0
  1
―
  0
TEXT
  8
_0-0_図面枠
 62
    4
 10
302.06669116666689
 20
75.400003999999967
 40
3.2000000000000002
 41
1
 50
0
  1
ＦＳ４００
  0
TEXT
  8
_0-0_図面枠
 62
    4
 10
102.06669116666677
 20
75.400003999999967
 40
3.2000000000000002
 41
1
 50
0
  1
ＦＳ４００
  0
TEXT
  8
_0-0_図面枠
 62
    4
 10
302.06669116666671
 20
99.400003999999967
 40
3.2000000000000002
 41
1
 50
0
  1
Ｌ＝１７２
  0
TEXT
  8
_0-0_図面枠
 62
    4
 10
102.06669116666677
 20
99.400004000000024
 40
3.2000000000000002
 41
1
 50
0
  1
Ｌ＝２４０
  0
TEXT
  8
_0-0_図面枠
 62
    4
 10
41.666666666666686
 20
128
 40
3
 41
1
 50
0
  1
（落下防止ワイヤー）
  0
INSERT
  2
-010-_10_
  8
_1-8_小物
 10
210
 20
148.5
 41
1
 42
1
 50
0
  0
LINE
  8
_1-8_小物
  6
CONTINUOUS
 62
    4
 10
157.03985321657842
 20
131.84018902839438
 11
151.17656837665947
 21
130.18752043233468
  0
LINE
  8
_1-8_小物
  6
CONTINUOUS
 62
    4
 10
157.16066740562403
 20
131.35707331101599
 11
151.24647145802518
 21
129.68796469593616
  0
LINE
  8
_1-8_小物
  6
CONTINUOUS
 62
    4
 10
157.03985321657842
 20
127.15981097160564
 11
151.17656837665947
 21
128.81247956766532
  0
LINE
  8
_1-8_小物
  6
CONTINUOUS
 62
    4
 10
157.16066740562403
 20
127.64292668898402
 11
151.24647145802518
 21
129.31203530406384
  0
LINE
  8
_1-8_小物
  6
CONTINUOUS
 62
    4
 10
157.1606675134222
 20
127.64292665856117
 11
157.1606675134222
 21
127.64292665856117
  0
LINE
  8
_1-8_小物
  6
CONTINUOUS
 62
    4
 10
157.1606675134222
 20
127.64292665856117
 11
157.6334904430544
 21
127.54220923628057
  0
LINE
  8
_1-8_小物
  6
CONTINUOUS
 62
    4
 10
157.6334904430544
 20
127.54220923628057
 11
158.1239067754791
 21
127.50097829566566
  0
LINE
  8
_1-8_小物
  6
CONTINUOUS
 62
    4
 10
158.1239067754791
 20
127.50097829566566
 11
158.61701545859822
 21
127.52048661798315
  0
LINE
  8
_1-8_小物
  6
CONTINUOUS
 62
    4
 10
158.61701545859822
 20
127.52048661798315
 11
159.09783363460025
 21
127.60014145273112
  0
LINE
  8
_1-8_小物
  6
CONTINUOUS
 62
    4
 10
159.09783363460025
 20
127.60014145273112
 11
159.55175188651307
 21
127.73752252806305
  0
LINE
  8
_1-8_小物
  6
CONTINUOUS
 62
    4
 10
159.55175188651307
 20
127.73752252806305
 11
159.96497813794602
 21
127.92845558952315
  0
LINE
  8
_1-8_小物
  6
CONTINUOUS
 62
    4
 10
159.96497813794602
 20
127.92845558952315
 11
160.32495671835193
 21
128.16713923265576
  0
LINE
  8
_1-8_小物
  6
CONTINUOUS
 62
    4
 10
160.32495671835193
 20
128.16713923265576
 11
160.62074986072307
 21
128.446321175744
  0
LINE
  8
_1-8_小物
  6
CONTINUOUS
 62
    4
 10
160.62074986072307
 20
128.446321175744
 11
160.84337004010706
 21
128.75751861672006
  0
LINE
  8
_1-8_小物
  6
CONTINUOUS
 62
    4
 10
160.84337004010706
 20
128.75751861672006
 11
160.98605305500459
 21
129.0912759788134
  0
LINE
  8
_1-8_小物
  6
CONTINUOUS
 62
    4
 10
160.98605305500459
 20
129.0912759788134
 11
161.04446355420905
 21
129.43745221346612
  0
LINE
  8
_1-8_小物
  6
CONTINUOUS
 62
    4
 10
161.04446355420905
 20
129.43745221346612
 11
161.01682676425926
 21
129.78552893096199
  0
LINE
  8
_1-8_小物
  6
CONTINUOUS
 62
    4
 10
161.01682676425926
 20
129.78552893096199
 11
160.90398241503297
 21
130.12492999637519
  0
LINE
  8
_1-8_小物
  6
CONTINUOUS
 62
    4
 10
160.90398241503297
 20
130.12492999637519
 11
160.70935922497941
 21
130.44534288007836
  0
LINE
  8
_1-8_小物
  6
CONTINUOUS
 62
    4
 10
160.70935922497941
 20
130.44534288007836
 11
160.43887072124426
 21
130.73703199873691
  0
LINE
  8
_1-8_小物
  6
CONTINUOUS
 62
    4
 10
160.43887072124426
 20
130.73703199873691
 11
160.10073556013975
 21
130.99113452608225
  0
LINE
  8
_1-8_小物
  6
CONTINUOUS
 62
    4
 10
160.10073556013975
 20
130.99113452608225
 11
159.70522780743138
 21
131.19992968540308
  0
LINE
  8
_1-8_小物
  6
CONTINUOUS
 62
    4
 10
159.70522780743138
 20
131.19992968540308
 11
159.26436476604863
 21
131.35707334143882
  0
LINE
  8
_1-8_小物
  6
CONTINUOUS
 62
    4
 10
159.26436476604863
 20
131.35707334143882
 11
158.79154183641646
 21
131.45779076371943
  0
LINE
  8
_1-8_小物
  6
CONTINUOUS
 62
    4
 10
158.79154183641646
 20
131.45779076371943
 11
158.30112550399173
 21
131.49902170433435
  0
LINE
  8
_1-8_小物
  6
CONTINUOUS
 62
    4
 10
158.30112550399173
 20
131.49902170433435
 11
157.80801682087261
 21
131.47951338201685
  0
LINE
  8
_1-8_小物
  6
CONTINUOUS
 62
    4
 10
157.80801682087261
 20
131.47951338201685
 11
157.32719864487058
 21
131.39985854726888
  0
LINE
  8
_1-8_小物
  6
CONTINUOUS
 62
    4
 10
157.32719864487058
 20
131.39985854726888
 11
157.160667405624
 21
131.35707331101597
  0
LINE
  8
_1-8_小物
  6
CONTINUOUS
 62
    4
 10
157.039853303781
 20
127.15981094702609
 11
157.039853303781
 21
127.15981094702609
  0
LINE
  8
_1-8_小物
  6
CONTINUOUS
 62
    4
 10
157.039853303781
 20
127.15981094702609
 11
157.5994947731449
 21
127.04264060375607
  0
LINE
  8
_1-8_小物
  6
CONTINUOUS
 62
    4
 10
157.5994947731449
 20
127.04264060375607
 11
158.1777625865289
 21
127.00013588225708
  0
LINE
  8
_1-8_小物
  6
CONTINUOUS
 62
    4
 10
158.1777625865289
 20
127.00013588225708
 11
158.75708636904091
 21
127.03358826698343
  0
LINE
  8
_1-8_小物
  6
CONTINUOUS
 62
    4
 10
158.75708636904091
 20
127.03358826698343
 11
159.31986366070132
 21
127.14198132415292
  0
LINE
  8
_1-8_小物
  6
CONTINUOUS
 62
    4
 10
159.31986366070132
 20
127.14198132415292
 11
159.84899475828206
 21
127.32202158557301
  0
LINE
  8
_1-8_小物
  6
CONTINUOUS
 62
    4
 10
159.84899475828206
 20
127.32202158557301
 11
160.32840228113639
 21
127.56823861900521
  0
LINE
  8
_1-8_小物
  6
CONTINUOUS
 62
    4
 10
160.32840228113639
 20
127.56823861900521
 11
160.74351967427432
 21
127.87315124448051
  0
LINE
  8
_1-8_小物
  6
CONTINUOUS
 62
    4
 10
160.74351967427432
 20
127.87315124448051
 11
161.08173380576486
 21
128.22749484616708
  0
LINE
  8
_1-8_小物
  6
CONTINUOUS
 62
    4
 10
161.08173380576486
 20
128.22749484616708
 11
161.33276821036728
 21
128.62050287303418
  0
LINE
  8
_1-8_小物
  6
CONTINUOUS
 62
    4
 10
161.33276821036728
 20
128.62050287303418
 11
161.48899533472729
 21
129.04023397505711
  0
LINE
  8
_1-8_小物
  6
CONTINUOUS
 62
    4
 10
161.48899533472729
 20
129.04023397505711
 11
161.54566829672595
 21
129.47393483509512
  0
LINE
  8
_1-8_小物
  6
CONTINUOUS
 62
    4
 10
161.54566829672595
 20
129.47393483509512
 11
161.5010651170908
 21
129.90842767197913
  0
LINE
  8
_1-8_小物
  6
CONTINUOUS
 62
    4
 10
161.5010651170908
 20
129.90842767197913
 11
161.35654104086481
 21
130.33051064072444
  0
LINE
  8
_1-8_小物
  6
CONTINUOUS
 62
    4
 10
161.35654104086481
 20
130.33051064072444
 11
161.11648735897137
 21
130.72735896390998
  0
LINE
  8
_1-8_小物
  6
CONTINUOUS
 62
    4
 10
161.11648735897137
 20
130.72735896390998
 11
160.78819798106178
 21
131.08691460605075
  0
LINE
  8
_1-8_小物
  6
CONTINUOUS
 62
    4
 10
160.78819798106178
 20
131.08691460605075
 11
160.38164781376139
 21
131.3982526509042
  0
LINE
  8
_1-8_小物
  6
CONTINUOUS
 62
    4
 10
160.38164781376139
 20
131.3982526509042
 11
159.9091896781793
 21
131.6519132495221
  0
LINE
  8
_1-8_小物
  6
CONTINUOUS
 62
    4
 10
159.9091896781793
 20
131.6519132495221
 11
159.38517897568983
 21
131.84018905297393
  0
LINE
  8
_1-8_小物
  6
CONTINUOUS
 62
    4
 10
159.38517897568983
 20
131.84018905297393
 11
158.82553750632593
 21
131.95735939624393
  0
LINE
  8
_1-8_小物
  6
CONTINUOUS
 62
    4
 10
158.82553750632593
 20
131.95735939624393
 11
158.24726969294193
 21
131.99986411774293
  0
LINE
  8
_1-8_小物
  6
CONTINUOUS
 62
    4
 10
158.24726969294193
 20
131.99986411774293
 11
157.66794591042992
 21
131.96641173301657
  0
LINE
  8
_1-8_小物
  6
CONTINUOUS
 62
    4
 10
157.66794591042992
 20
131.96641173301657
 11
157.10516861876951
 21
131.85801867584706
  0
LINE
  8
_1-8_小物
  6
CONTINUOUS
 62
    4
 10
157.10516861876951
 20
131.85801867584706
 11
157.03985321657842
 21
131.84018902839435
  0
ARC
  8
_1-8_小物
  6
CONTINUOUS
 62
    4
 10
149.88841540894515
 20
124.5
 40
5
 50
74.23983426036601
 51
82.44448201007404
  0
ARC
  8
_1-8_小物
  6
CONTINUOUS
 62
    4
 10
149.82008748449641
 20
124
 40
5
 50
74.258588419679057
 51
81.653895699843488
  0
ARC
  8
_1-8_小物
  6
CONTINUOUS
 62
    4
 10
149.82008748449641
 20
135
 40
5
 50
278.34610430015653
 51
285.74141158032091
  0
ARC
  8
_1-8_小物
  6
CONTINUOUS
 62
    4
 10
149.88841540894515
 20
134.5
 40
5
 50
277.55551798992599
 51
285.76016573963398
  0
INSERT
  2
-011-_11_
  8
_1-8_小物
 10
210
 20
148.5
 41
1
 42
1
 50
0
  0
LINE
  8
_1-8_小物
  6
CONTINUOUS
 62
    4
 10
82.718512396225748
 20
131.84018902839438
 11
88.581797236144695
 21
130.18752043233468
  0
LINE
  8
_1-8_小物
  6
CONTINUOUS
 62
    4
 10
82.597698207180116
 20
131.35707331101599
 11
88.511894154779
 21
129.68796469593616
  0
LINE
  8
_1-8_小物
  6
CONTINUOUS
 62
    4
 10
82.718512396225748
 20
127.15981097160564
 11
88.581797236144695
 21
128.81247956766532
  0
LINE
  8
_1-8_小物
  6
CONTINUOUS
 62
    4
 10
82.597698207180116
 20
127.64292668898402
 11
88.511894154779
 21
129.31203530406384
  0
LINE
  8
_1-8_小物
  6
CONTINUOUS
 62
    4
 10
82.597698207180201
 20
131.35707331101594
 11
82.597698207180201
 21
131.35707331101594
  0
LINE
  8
_1-8_小物
  6
CONTINUOUS
 62
    4
 10
82.597698207180201
 20
131.35707331101594
 11
82.124875283394388
 21
131.45779074697211
  0
LINE
  8
_1-8_小物
  6
CONTINUOUS
 62
    4
 10
82.124875283394388
 20
131.45779074697211
 11
81.634458953363037
 21
131.49902170177148
  0
LINE
  8
_1-8_小物
  6
CONTINUOUS
 62
    4
 10
81.634458953363037
 20
131.49902170177148
 11
81.141350269111499
 21
131.47951339371627
  0
LINE
  8
_1-8_小物
  6
CONTINUOUS
 62
    4
 10
81.141350269111499
 20
131.47951339371627
 11
80.660532088485724
 21
131.39985857287513
  0
LINE
  8
_1-8_小物
  6
CONTINUOUS
 62
    4
 10
80.660532088485724
 20
131.39985857287513
 11
80.206613828598293
 21
131.262477510672
  0
LINE
  8
_1-8_小物
  6
CONTINUOUS
 62
    4
 10
80.206613828598293
 20
131.262477510672
 11
79.79338756608216
 21
131.07154446116377
  0
LINE
  8
_1-8_小物
  6
CONTINUOUS
 62
    4
 10
79.79338756608216
 20
131.07154446116377
 11
79.433408971821308
 21
130.8328608284429
  0
LINE
  8
_1-8_小物
  6
CONTINUOUS
 62
    4
 10
79.433408971821308
 20
130.8328608284429
 11
79.137615813244381
 21
130.55367889390996
  0
LINE
  8
_1-8_小物
  6
CONTINUOUS
 62
    4
 10
79.137615813244381
 20
130.55367889390996
 11
78.914995615796187
 21
130.24248145937278
  0
LINE
  8
_1-8_小物
  6
CONTINUOUS
 62
    4
 10
78.914995615796187
 20
130.24248145937278
 11
78.772312581524943
 21
129.90872410140634
  0
LINE
  8
_1-8_小物
  6
CONTINUOUS
 62
    4
 10
78.772312581524943
 20
129.90872410140634
 11
78.71390206222587
 21
129.56254786844303
  0
LINE
  8
_1-8_小物
  6
CONTINUOUS
 62
    4
 10
78.71390206222587
 20
129.56254786844303
 11
78.741538831970715
 21
129.2144711501478
  0
LINE
  8
_1-8_小物
  6
CONTINUOUS
 62
    4
 10
78.741538831970715
 20
129.2144711501478
 11
78.854383161495676
 21
128.8750700814708
  0
LINE
  8
_1-8_小物
  6
CONTINUOUS
 62
    4
 10
78.854383161495676
 20
128.8750700814708
 11
79.0490063329501
 21
128.55465719213848
  0
LINE
  8
_1-8_小物
  6
CONTINUOUS
 62
    4
 10
79.0490063329501
 20
128.55465719213848
 11
79.319494819753459
 21
128.26296806565651
  0
LINE
  8
_1-8_小物
  6
CONTINUOUS
 62
    4
 10
79.319494819753459
 20
128.26296806565651
 11
79.657629966107976
 21
128.0088655285312
  0
LINE
  8
_1-8_小物
  6
CONTINUOUS
 62
    4
 10
79.657629966107976
 20
128.0088655285312
 11
80.053137706696333
 21
127.80007035777102
  0
LINE
  8
_1-8_小物
  6
CONTINUOUS
 62
    4
 10
80.053137706696333
 20
127.80007035777102
 11
80.494000738957297
 21
127.64292668898406
  0
LINE
  8
_1-8_小物
  6
CONTINUOUS
 62
    4
 10
80.494000738957297
 20
127.64292668898406
 11
80.96682366274311
 21
127.54220925302788
  0
LINE
  8
_1-8_小物
  6
CONTINUOUS
 62
    4
 10
80.96682366274311
 20
127.54220925302788
 11
81.457239992774475
 21
127.50097829822853
  0
LINE
  8
_1-8_小物
  6
CONTINUOUS
 62
    4
 10
81.457239992774475
 20
127.50097829822853
 11
81.950348677026014
 21
127.52048660628371
  0
LINE
  8
_1-8_小物
  6
CONTINUOUS
 62
    4
 10
81.950348677026014
 20
127.52048660628371
 11
82.431166857651789
 21
127.60014142712487
  0
LINE
  8
_1-8_小物
  6
CONTINUOUS
 62
    4
 10
82.431166857651789
 20
127.60014142712487
 11
82.597698099381972
 21
127.64292665856117
  0
LINE
  8
_1-8_小物
  6
CONTINUOUS
 62
    4
 10
82.718512396225734
 20
131.84018902839435
 11
82.718512396225734
 21
131.84018902839435
  0
LINE
  8
_1-8_小物
  6
CONTINUOUS
 62
    4
 10
82.718512396225734
 20
131.84018902839435
 11
82.158870931227952
 21
131.9573593833947
  0
LINE
  8
_1-8_小物
  6
CONTINUOUS
 62
    4
 10
82.158870931227952
 20
131.9573593833947
 11
81.580603119427821
 21
131.99986411701445
  0
LINE
  8
_1-8_小物
  6
CONTINUOUS
 62
    4
 10
81.580603119427821
 20
131.99986411701445
 11
81.001279335669267
 21
131.96641174443101
  0
LINE
  8
_1-8_小物
  6
CONTINUOUS
 62
    4
 10
81.001279335669267
 20
131.96641174443101
 11
80.438502039969805
 21
131.8580186990576
  0
LINE
  8
_1-8_小物
  6
CONTINUOUS
 62
    4
 10
80.438502039969805
 20
131.8580186990576
 11
79.909370935680215
 21
131.67797844872834
  0
LINE
  8
_1-8_小物
  6
CONTINUOUS
 62
    4
 10
79.909370935680215
 20
131.67797844872834
 11
79.429963403651087
 21
131.43176142534475
  0
LINE
  8
_1-8_小物
  6
CONTINUOUS
 62
    4
 10
79.429963403651087
 20
131.43176142534475
 11
79.014845999151191
 21
131.12684880857049
  0
LINE
  8
_1-8_小物
  6
CONTINUOUS
 62
    4
 10
79.014845999151191
 20
131.12684880857049
 11
78.67663185445673
 21
130.77250521397306
  0
LINE
  8
_1-8_小物
  6
CONTINUOUS
 62
    4
 10
78.67663185445673
 20
130.77250521397306
 11
78.425597435209625
 21
130.37949719236775
  0
LINE
  8
_1-8_小物
  6
CONTINUOUS
 62
    4
 10
78.425597435209625
 20
130.37949719236775
 11
78.269370295209157
 21
129.95976609361941
  0
LINE
  8
_1-8_小物
  6
CONTINUOUS
 62
    4
 10
78.269370295209157
 20
129.95976609361941
 11
78.212697317049489
 21
129.52606523476931
  0
LINE
  8
_1-8_小物
  6
CONTINUOUS
 62
    4
 10
78.212697317049489
 20
129.52606523476931
 11
78.257300480494095
 21
129.09157239695037
  0
LINE
  8
_1-8_小物
  6
CONTINUOUS
 62
    4
 10
78.257300480494095
 20
129.09157239695037
 11
78.401824540991996
 21
128.66948942517578
  0
LINE
  8
_1-8_小物
  6
CONTINUOUS
 62
    4
 10
78.401824540991996
 20
128.66948942517578
 11
78.641878208097665
 21
128.27264109695858
  0
LINE
  8
_1-8_小物
  6
CONTINUOUS
 62
    4
 10
78.641878208097665
 20
128.27264109695858
 11
78.970167572609128
 21
127.91308544793674
  0
LINE
  8
_1-8_小物
  6
CONTINUOUS
 62
    4
 10
78.970167572609128
 20
127.91308544793674
 11
79.376717728308108
 21
127.60174739456181
  0
LINE
  8
_1-8_小物
  6
CONTINUOUS
 62
    4
 10
79.376717728308108
 20
127.60174739456181
 11
79.84917585443803
 21
127.34808678604097
  0
LINE
  8
_1-8_小物
  6
CONTINUOUS
 62
    4
 10
79.84917585443803
 20
127.34808678604097
 11
80.373186549911765
 21
127.15981097160564
  0
LINE
  8
_1-8_小物
  6
CONTINUOUS
 62
    4
 10
80.373186549911765
 20
127.15981097160564
 11
80.93282801490956
 21
127.04264061660528
  0
LINE
  8
_1-8_小物
  6
CONTINUOUS
 62
    4
 10
80.93282801490956
 20
127.04264061660528
 11
81.511095826709692
 21
127.00013588298553
  0
LINE
  8
_1-8_小物
  6
CONTINUOUS
 62
    4
 10
81.511095826709692
 20
127.00013588298553
 11
82.090419610468246
 21
127.03358825556899
  0
LINE
  8
_1-8_小物
  6
CONTINUOUS
 62
    4
 10
82.090419610468246
 20
127.03358825556899
 11
82.653196906167707
 21
127.1419813009424
  0
LINE
  8
_1-8_小物
  6
CONTINUOUS
 62
    4
 10
82.653196906167707
 20
127.1419813009424
 11
82.718512309023183
 21
127.15981094702609
  0
ARC
  8
_1-8_小物
  6
CONTINUOUS
 62
    4
 10
89.869950203859005
 20
124.5
 40
5
 50
97.555517989925804
 51
105.76016573963415
  0
ARC
  8
_1-8_小物
  6
CONTINUOUS
 62
    4
 10
89.938278128307758
 20
124
 40
5
 50
98.346104300156512
 51
105.74141158032096
  0
ARC
  8
_1-8_小物
  6
CONTINUOUS
 62
    4
 10
89.938278128307758
 20
135
 40
5
 50
254.25858841967906
 51
261.65389569984347
  0
ARC
  8
_1-8_小物
  6
CONTINUOUS
 62
    4
 10
89.869950203859005
 20
134.5
 40
5
 50
254.23983426036585
 51
262.44448201007418
  0
LINE
  8
_1-8_小物
  6
CONTINUOUS
 62
    4
 10
91.879182806402085
 20
129.25
 11
118.21251613973541
 21
129.25
  0
LINE
  8
_1-8_小物
  6
CONTINUOUS
 62
    4
 10
91.879182806402085
 20
129.75
 11
118.21251613973541
 21
129.75
  0
LINE
  8
_1-8_小物
  6
CONTINUOUS
 62
    4
 10
147.87918280640207
 20
129.25
 11
121.54584947306876
 21
129.25
  0
LINE
  8
_1-8_小物
  6
CONTINUOUS
 62
    4
 10
147.87918280640207
 20
129.75
 11
121.54584947306876
 21
129.75
  0
TEXT
  8
_0-0_図面枠
 62
    4
 10
241.66666666666663
 20
128
 40
3
 41
1
 50
0
  1
（落下防止ワイヤー）
  0
INSERT
  2
-012-_12_
  8
_1-8_小物
 10
210
 20
148.5
 41
1
 42
1
 50
0
  0
LINE
  8
_1-8_小物
  6
CONTINUOUS
 62
    4
 10
357.03985321657842
 20
131.84018902839438
 11
351.17656837665947
 21
130.18752043233468
  0
LINE
  8
_1-8_小物
  6
CONTINUOUS
 62
    4
 10
357.16066740562405
 20
131.35707331101599
 11
351.24647145802516
 21
129.68796469593616
  0
LINE
  8
_1-8_小物
  6
CONTINUOUS
 62
    4
 10
357.03985321657842
 20
127.15981097160564
 11
351.17656837665947
 21
128.81247956766532
  0
LINE
  8
_1-8_小物
  6
CONTINUOUS
 62
    4
 10
357.16066740562405
 20
127.64292668898402
 11
351.24647145802516
 21
129.31203530406384
  0
LINE
  8
_1-8_小物
  6
CONTINUOUS
 62
    4
 10
357.1606675134222
 20
127.64292665856117
 11
357.1606675134222
 21
127.64292665856117
  0
LINE
  8
_1-8_小物
  6
CONTINUOUS
 62
    4
 10
357.1606675134222
 20
127.64292665856117
 11
357.63349044305437
 21
127.54220923628057
  0
LINE
  8
_1-8_小物
  6
CONTINUOUS
 62
    4
 10
357.63349044305437
 20
127.54220923628057
 11
358.1239067754791
 21
127.50097829566566
  0
LINE
  8
_1-8_小物
  6
CONTINUOUS
 62
    4
 10
358.1239067754791
 20
127.50097829566566
 11
358.61701545859825
 21
127.52048661798315
  0
LINE
  8
_1-8_小物
  6
CONTINUOUS
 62
    4
 10
358.61701545859825
 20
127.52048661798315
 11
359.09783363460025
 21
127.60014145273114
  0
LINE
  8
_1-8_小物
  6
CONTINUOUS
 62
    4
 10
359.09783363460025
 20
127.60014145273114
 11
359.55175188651305
 21
127.73752252806307
  0
LINE
  8
_1-8_小物
  6
CONTINUOUS
 62
    4
 10
359.55175188651305
 20
127.73752252806307
 11
359.96497813794605
 21
127.92845558952317
  0
LINE
  8
_1-8_小物
  6
CONTINUOUS
 62
    4
 10
359.96497813794605
 20
127.92845558952317
 11
360.32495671835193
 21
128.16713923265576
  0
LINE
  8
_1-8_小物
  6
CONTINUOUS
 62
    4
 10
360.32495671835193
 20
128.16713923265576
 11
360.62074986072304
 21
128.44632117574403
  0
LINE
  8
_1-8_小物
  6
CONTINUOUS
 62
    4
 10
360.62074986072304
 20
128.44632117574403
 11
360.84337004010706
 21
128.75751861672009
  0
LINE
  8
_1-8_小物
  6
CONTINUOUS
 62
    4
 10
360.84337004010706
 20
128.75751861672009
 11
360.98605305500456
 21
129.0912759788134
  0
LINE
  8
_1-8_小物
  6
CONTINUOUS
 62
    4
 10
360.98605305500456
 20
129.0912759788134
 11
361.04446355420902
 21
129.43745221346614
  0
LINE
  8
_1-8_小物
  6
CONTINUOUS
 62
    4
 10
361.04446355420902
 20
129.43745221346614
 11
361.01682676425924
 21
129.78552893096202
  0
LINE
  8
_1-8_小物
  6
CONTINUOUS
 62
    4
 10
361.01682676425924
 20
129.78552893096202
 11
360.90398241503294
 21
130.12492999637519
  0
LINE
  8
_1-8_小物
  6
CONTINUOUS
 62
    4
 10
360.90398241503294
 20
130.12492999637519
 11
360.70935922497938
 21
130.44534288007836
  0
LINE
  8
_1-8_小物
  6
CONTINUOUS
 62
    4
 10
360.70935922497938
 20
130.44534288007836
 11
360.4388707212442
 21
130.73703199873694
  0
LINE
  8
_1-8_小物
  6
CONTINUOUS
 62
    4
 10
360.4388707212442
 20
130.73703199873694
 11
360.1007355601397
 21
130.99113452608228
  0
LINE
  8
_1-8_小物
  6
CONTINUOUS
 62
    4
 10
360.1007355601397
 20
130.99113452608228
 11
359.70522780743136
 21
131.19992968540308
  0
LINE
  8
_1-8_小物
  6
CONTINUOUS
 62
    4
 10
359.70522780743136
 20
131.19992968540308
 11
359.26436476604857
 21
131.35707334143885
  0
LINE
  8
_1-8_小物
  6
CONTINUOUS
 62
    4
 10
359.26436476604857
 20
131.35707334143885
 11
358.7915418364164
 21
131.45779076371943
  0
LINE
  8
_1-8_小物
  6
CONTINUOUS
 62
    4
 10
358.7915418364164
 20
131.45779076371943
 11
358.30112550399167
 21
131.49902170433435
  0
LINE
  8
_1-8_小物
  6
CONTINUOUS
 62
    4
 10
358.30112550399167
 20
131.49902170433435
 11
357.80801682087258
 21
131.47951338201685
  0
LINE
  8
_1-8_小物
  6
CONTINUOUS
 62
    4
 10
357.80801682087258
 20
131.47951338201685
 11
357.32719864487052
 21
131.39985854726888
  0
LINE
  8
_1-8_小物
  6
CONTINUOUS
 62
    4
 10
357.32719864487052
 20
131.39985854726888
 11
357.16066740562394
 21
131.35707331101594
  0
LINE
  8
_1-8_小物
  6
CONTINUOUS
 62
    4
 10
357.039853303781
 20
127.15981094702607
 11
357.039853303781
 21
127.15981094702607
  0
LINE
  8
_1-8_小物
  6
CONTINUOUS
 62
    4
 10
357.039853303781
 20
127.15981094702607
 11
357.5994947731449
 21
127.04264060375607
  0
LINE
  8
_1-8_小物
  6
CONTINUOUS
 62
    4
 10
357.5994947731449
 20
127.04264060375607
 11
358.1777625865289
 21
127.00013588225708
  0
LINE
  8
_1-8_小物
  6
CONTINUOUS
 62
    4
 10
358.1777625865289
 20
127.00013588225708
 11
358.75708636904091
 21
127.03358826698343
  0
LINE
  8
_1-8_小物
  6
CONTINUOUS
 62
    4
 10
358.75708636904091
 20
127.03358826698343
 11
359.31986366070129
 21
127.14198132415294
  0
LINE
  8
_1-8_小物
  6
CONTINUOUS
 62
    4
 10
359.31986366070129
 20
127.14198132415294
 11
359.84899475828206
 21
127.32202158557303
  0
LINE
  8
_1-8_小物
  6
CONTINUOUS
 62
    4
 10
359.84899475828206
 20
127.32202158557303
 11
360.32840228113639
 21
127.56823861900523
  0
LINE
  8
_1-8_小物
  6
CONTINUOUS
 62
    4
 10
360.32840228113639
 20
127.56823861900523
 11
360.7435196742743
 21
127.87315124448052
  0
LINE
  8
_1-8_小物
  6
CONTINUOUS
 62
    4
 10
360.7435196742743
 20
127.87315124448052
 11
361.08173380576483
 21
128.2274948461671
  0
LINE
  8
_1-8_小物
  6
CONTINUOUS
 62
    4
 10
361.08173380576483
 20
128.2274948461671
 11
361.33276821036725
 21
128.62050287303418
  0
LINE
  8
_1-8_小物
  6
CONTINUOUS
 62
    4
 10
361.33276821036725
 20
128.62050287303418
 11
361.48899533472729
 21
129.04023397505713
  0
LINE
  8
_1-8_小物
  6
CONTINUOUS
 62
    4
 10
361.48899533472729
 20
129.04023397505713
 11
361.54566829672592
 21
129.47393483509512
  0
LINE
  8
_1-8_小物
  6
CONTINUOUS
 62
    4
 10
361.54566829672592
 20
129.47393483509512
 11
361.50106511709077
 21
129.90842767197915
  0
LINE
  8
_1-8_小物
  6
CONTINUOUS
 62
    4
 10
361.50106511709077
 20
129.90842767197915
 11
361.35654104086478
 21
130.33051064072444
  0
LINE
  8
_1-8_小物
  6
CONTINUOUS
 62
    4
 10
361.35654104086478
 20
130.33051064072444
 11
361.11648735897131
 21
130.72735896391001
  0
LINE
  8
_1-8_小物
  6
CONTINUOUS
 62
    4
 10
361.11648735897131
 20
130.72735896391001
 11
360.78819798106173
 21
131.08691460605075
  0
LINE
  8
_1-8_小物
  6
CONTINUOUS
 62
    4
 10
360.78819798106173
 20
131.08691460605075
 11
360.38164781376133
 21
131.3982526509042
  0
LINE
  8
_1-8_小物
  6
CONTINUOUS
 62
    4
 10
360.38164781376133
 20
131.3982526509042
 11
359.90918967817925
 21
131.6519132495221
  0
LINE
  8
_1-8_小物
  6
CONTINUOUS
 62
    4
 10
359.90918967817925
 20
131.6519132495221
 11
359.38517897568977
 21
131.84018905297393
  0
LINE
  8
_1-8_小物
  6
CONTINUOUS
 62
    4
 10
359.38517897568977
 20
131.84018905297393
 11
358.82553750632587
 21
131.95735939624393
  0
LINE
  8
_1-8_小物
  6
CONTINUOUS
 62
    4
 10
358.82553750632587
 20
131.95735939624393
 11
358.24726969294187
 21
131.99986411774293
  0
LINE
  8
_1-8_小物
  6
CONTINUOUS
 62
    4
 10
358.24726969294187
 20
131.99986411774293
 11
357.66794591042986
 21
131.96641173301657
  0
LINE
  8
_1-8_小物
  6
CONTINUOUS
 62
    4
 10
357.66794591042986
 20
131.96641173301657
 11
357.10516861876948
 21
131.85801867584706
  0
LINE
  8
_1-8_小物
  6
CONTINUOUS
 62
    4
 10
357.10516861876948
 20
131.85801867584706
 11
357.03985321657842
 21
131.84018902839438
  0
ARC
  8
_1-8_小物
  6
CONTINUOUS
 62
    4
 10
349.88841540894515
 20
124.5
 40
5
 50
74.239834260366322
 51
82.44448201007404
  0
ARC
  8
_1-8_小物
  6
CONTINUOUS
 62
    4
 10
349.82008748449636
 20
124
 40
5
 50
74.258588419678333
 51
81.653895699842849
  0
ARC
  8
_1-8_小物
  6
CONTINUOUS
 62
    4
 10
349.82008748449636
 20
135
 40
5
 50
278.34610430015715
 51
285.74141158032165
  0
ARC
  8
_1-8_小物
  6
CONTINUOUS
 62
    4
 10
349.88841540894515
 20
134.5
 40
5
 50
277.55551798992599
 51
285.76016573963363
  0
INSERT
  2
-013-_13_
  8
_1-8_小物
 10
210
 20
148.5
 41
1
 42
1
 50
0
  0
LINE
  8
_1-8_小物
  6
CONTINUOUS
 62
    4
 10
282.71851239622572
 20
131.84018902839438
 11
288.58179723614467
 21
130.18752043233468
  0
LINE
  8
_1-8_小物
  6
CONTINUOUS
 62
    4
 10
282.59769820718009
 20
131.35707331101599
 11
288.51189415477899
 21
129.68796469593616
  0
LINE
  8
_1-8_小物
  6
CONTINUOUS
 62
    4
 10
282.71851239622572
 20
127.15981097160564
 11
288.58179723614467
 21
128.81247956766532
  0
LINE
  8
_1-8_小物
  6
CONTINUOUS
 62
    4
 10
282.59769820718009
 20
127.64292668898402
 11
288.51189415477899
 21
129.31203530406384
  0
LINE
  8
_1-8_小物
  6
CONTINUOUS
 62
    4
 10
282.5976982071802
 20
131.35707331101594
 11
282.5976982071802
 21
131.35707331101594
  0
LINE
  8
_1-8_小物
  6
CONTINUOUS
 62
    4
 10
282.5976982071802
 20
131.35707331101594
 11
282.12487528339437
 21
131.45779074697211
  0
LINE
  8
_1-8_小物
  6
CONTINUOUS
 62
    4
 10
282.12487528339437
 20
131.45779074697211
 11
281.63445895336304
 21
131.49902170177148
  0
LINE
  8
_1-8_小物
  6
CONTINUOUS
 62
    4
 10
281.63445895336304
 20
131.49902170177148
 11
281.14135026911151
 21
131.47951339371627
  0
LINE
  8
_1-8_小物
  6
CONTINUOUS
 62
    4
 10
281.14135026911151
 20
131.47951339371627
 11
280.6605320884857
 21
131.39985857287513
  0
LINE
  8
_1-8_小物
  6
CONTINUOUS
 62
    4
 10
280.6605320884857
 20
131.39985857287513
 11
280.20661382859828
 21
131.262477510672
  0
LINE
  8
_1-8_小物
  6
CONTINUOUS
 62
    4
 10
280.20661382859828
 20
131.262477510672
 11
279.79338756608217
 21
131.07154446116377
  0
LINE
  8
_1-8_小物
  6
CONTINUOUS
 62
    4
 10
279.79338756608217
 20
131.07154446116377
 11
279.43340897182128
 21
130.8328608284429
  0
LINE
  8
_1-8_小物
  6
CONTINUOUS
 62
    4
 10
279.43340897182128
 20
130.8328608284429
 11
279.13761581324439
 21
130.55367889390996
  0
LINE
  8
_1-8_小物
  6
CONTINUOUS
 62
    4
 10
279.13761581324439
 20
130.55367889390996
 11
278.91499561579622
 21
130.24248145937278
  0
LINE
  8
_1-8_小物
  6
CONTINUOUS
 62
    4
 10
278.91499561579622
 20
130.24248145937278
 11
278.77231258152494
 21
129.90872410140634
  0
LINE
  8
_1-8_小物
  6
CONTINUOUS
 62
    4
 10
278.77231258152494
 20
129.90872410140634
 11
278.71390206222588
 21
129.56254786844303
  0
LINE
  8
_1-8_小物
  6
CONTINUOUS
 62
    4
 10
278.71390206222588
 20
129.56254786844303
 11
278.74153883197073
 21
129.2144711501478
  0
LINE
  8
_1-8_小物
  6
CONTINUOUS
 62
    4
 10
278.74153883197073
 20
129.2144711501478
 11
278.85438316149566
 21
128.8750700814708
  0
LINE
  8
_1-8_小物
  6
CONTINUOUS
 62
    4
 10
278.85438316149566
 20
128.8750700814708
 11
279.04900633295011
 21
128.55465719213848
  0
LINE
  8
_1-8_小物
  6
CONTINUOUS
 62
    4
 10
279.04900633295011
 20
128.55465719213848
 11
279.31949481975346
 21
128.26296806565651
  0
LINE
  8
_1-8_小物
  6
CONTINUOUS
 62
    4
 10
279.31949481975346
 20
128.26296806565651
 11
279.657629966108
 21
128.0088655285312
  0
LINE
  8
_1-8_小物
  6
CONTINUOUS
 62
    4
 10
279.657629966108
 20
128.0088655285312
 11
280.0531377066963
 21
127.80007035777102
  0
LINE
  8
_1-8_小物
  6
CONTINUOUS
 62
    4
 10
280.0531377066963
 20
127.80007035777102
 11
280.49400073895731
 21
127.64292668898406
  0
LINE
  8
_1-8_小物
  6
CONTINUOUS
 62
    4
 10
280.49400073895731
 20
127.64292668898406
 11
280.96682366274314
 21
127.54220925302788
  0
LINE
  8
_1-8_小物
  6
CONTINUOUS
 62
    4
 10
280.96682366274314
 20
127.54220925302788
 11
281.45723999277448
 21
127.50097829822853
  0
LINE
  8
_1-8_小物
  6
CONTINUOUS
 62
    4
 10
281.45723999277448
 20
127.50097829822853
 11
281.950348677026
 21
127.52048660628371
  0
LINE
  8
_1-8_小物
  6
CONTINUOUS
 62
    4
 10
281.950348677026
 20
127.52048660628371
 11
282.43116685765176
 21
127.60014142712487
  0
LINE
  8
_1-8_小物
  6
CONTINUOUS
 62
    4
 10
282.43116685765176
 20
127.60014142712487
 11
282.59769809938194
 21
127.64292665856117
  0
LINE
  8
_1-8_小物
  6
CONTINUOUS
 62
    4
 10
282.71851239622572
 20
131.84018902839438
 11
282.71851239622572
 21
131.84018902839438
  0
LINE
  8
_1-8_小物
  6
CONTINUOUS
 62
    4
 10
282.71851239622572
 20
131.84018902839438
 11
282.15887093122791
 21
131.95735938339473
  0
LINE
  8
_1-8_小物
  6
CONTINUOUS
 62
    4
 10
282.15887093122791
 20
131.95735938339473
 11
281.58060311942779
 21
131.99986411701445
  0
LINE
  8
_1-8_小物
  6
CONTINUOUS
 62
    4
 10
281.58060311942779
 20
131.99986411701445
 11
281.00127933566921
 21
131.96641174443101
  0
LINE
  8
_1-8_小物
  6
CONTINUOUS
 62
    4
 10
281.00127933566921
 20
131.96641174443101
 11
280.43850203996976
 21
131.85801869905757
  0
LINE
  8
_1-8_小物
  6
CONTINUOUS
 62
    4
 10
280.43850203996976
 20
131.85801869905757
 11
279.90937093568022
 21
131.67797844872831
  0
LINE
  8
_1-8_小物
  6
CONTINUOUS
 62
    4
 10
279.90937093568022
 20
131.67797844872831
 11
279.42996340365107
 21
131.43176142534472
  0
LINE
  8
_1-8_小物
  6
CONTINUOUS
 62
    4
 10
279.42996340365107
 20
131.43176142534472
 11
279.01484599915119
 21
131.12684880857049
  0
LINE
  8
_1-8_小物
  6
CONTINUOUS
 62
    4
 10
279.01484599915119
 20
131.12684880857049
 11
278.67663185445673
 21
130.77250521397303
  0
LINE
  8
_1-8_小物
  6
CONTINUOUS
 62
    4
 10
278.67663185445673
 20
130.77250521397303
 11
278.42559743520962
 21
130.37949719236772
  0
LINE
  8
_1-8_小物
  6
CONTINUOUS
 62
    4
 10
278.42559743520962
 20
130.37949719236772
 11
278.26937029520917
 21
129.95976609361938
  0
LINE
  8
_1-8_小物
  6
CONTINUOUS
 62
    4
 10
278.26937029520917
 20
129.95976609361938
 11
278.2126973170495
 21
129.52606523476928
  0
LINE
  8
_1-8_小物
  6
CONTINUOUS
 62
    4
 10
278.2126973170495
 20
129.52606523476928
 11
278.25730048049411
 21
129.09157239695037
  0
LINE
  8
_1-8_小物
  6
CONTINUOUS
 62
    4
 10
278.25730048049411
 20
129.09157239695037
 11
278.40182454099198
 21
128.66948942517575
  0
LINE
  8
_1-8_小物
  6
CONTINUOUS
 62
    4
 10
278.40182454099198
 20
128.66948942517575
 11
278.64187820809769
 21
128.27264109695858
  0
LINE
  8
_1-8_小物
  6
CONTINUOUS
 62
    4
 10
278.64187820809769
 20
128.27264109695858
 11
278.97016757260911
 21
127.91308544793672
  0
LINE
  8
_1-8_小物
  6
CONTINUOUS
 62
    4
 10
278.97016757260911
 20
127.91308544793672
 11
279.37671772830811
 21
127.6017473945618
  0
LINE
  8
_1-8_小物
  6
CONTINUOUS
 62
    4
 10
279.37671772830811
 20
127.6017473945618
 11
279.84917585443804
 21
127.34808678604095
  0
LINE
  8
_1-8_小物
  6
CONTINUOUS
 62
    4
 10
279.84917585443804
 20
127.34808678604095
 11
280.37318654991179
 21
127.15981097160564
  0
LINE
  8
_1-8_小物
  6
CONTINUOUS
 62
    4
 10
280.37318654991179
 20
127.15981097160564
 11
280.9328280149096
 21
127.04264061660528
  0
LINE
  8
_1-8_小物
  6
CONTINUOUS
 62
    4
 10
280.9328280149096
 20
127.04264061660528
 11
281.51109582670972
 21
127.00013588298553
  0
LINE
  8
_1-8_小物
  6
CONTINUOUS
 62
    4
 10
281.51109582670972
 20
127.00013588298553
 11
282.09041961046825
 21
127.03358825556899
  0
LINE
  8
_1-8_小物
  6
CONTINUOUS
 62
    4
 10
282.09041961046825
 20
127.03358825556899
 11
282.65319690616775
 21
127.14198130094242
  0
LINE
  8
_1-8_小物
  6
CONTINUOUS
 62
    4
 10
282.65319690616775
 20
127.14198130094242
 11
282.71851230902314
 21
127.15981094702607
  0
ARC
  8
_1-8_小物
  6
CONTINUOUS
 62
    4
 10
289.86995020385899
 20
124.5
 40
5
 50
97.55551798992596
 51
105.76016573963432
  0
ARC
  8
_1-8_小物
  6
CONTINUOUS
 62
    4
 10
289.93827812830773
 20
124
 40
5
 50
98.346104300156512
 51
105.74141158032096
  0
ARC
  8
_1-8_小物
  6
CONTINUOUS
 62
    4
 10
289.93827812830773
 20
135
 40
5
 50
254.25858841967906
 51
261.65389569984347
  0
ARC
  8
_1-8_小物
  6
CONTINUOUS
 62
    4
 10
289.86995020385899
 20
134.5
 40
5
 50
254.23983426036568
 51
262.44448201007401
  0
LINE
  8
_1-8_小物
  6
CONTINUOUS
 62
    4
 10
291.87918280640207
 20
129.25
 11
318.21251613973538
 21
129.25
  0
LINE
  8
_1-8_小物
  6
CONTINUOUS
 62
    4
 10
291.87918280640207
 20
129.75
 11
318.21251613973538
 21
129.75
  0
LINE
  8
_1-8_小物
  6
CONTINUOUS
 62
    4
 10
347.87918280640207
 20
129.25
 11
321.54584947306876
 21
129.25
  0
LINE
  8
_1-8_小物
  6
CONTINUOUS
 62
    4
 10
347.87918280640207
 20
129.75
 11
321.54584947306876
 21
129.75
  0
LINE
  8
_0-0_図面枠
  6
CONTINUOUS
 62
    4
 10
182.14999999999998
 20
32.199999999999989
 11
40
 21
32.199999999999989
  0
LINE
  8
_0-0_図面枠
  6
CONTINUOUS
 62
    4
 10
182.14999999999998
 20
26.199999999999989
 11
40
 21
26.199999999999989
  0
TEXT
  8
_0-0_図面枠
 62
    4
 10
43.586831999999958
 20
33.427555499999983
 40
3.2000000000000002
 41
1
 50
0
  1
※
  0
TEXT
  8
_0-0_図面枠
 62
    4
 10
43.586831999999958
 20
27.427560999999969
 40
3.2000000000000002
 41
1
 50
0
  1
※
  0
LINE
  8
_0-0_図面枠
  6
CONTINUOUS
 62
    4
 10
382.15000000000009
 20
26.199999999999989
 11
240
 21
26.199999999999989
  0
LINE
  8
_0-0_図面枠
  6
CONTINUOUS
 62
    4
 10
382.15000000000009
 20
20.199999999999989
 11
240
 21
20.199999999999989
  0
LINE
  8
_0-0_図面枠
  6
CONTINUOUS
 62
    4
 10
382.15000000000009
 20
32.199999999999989
 11
240
 21
32.199999999999989
  0
TEXT
  8
_0-0_図面枠
 62
    4
 10
243.5868145
 20
33.427555499999983
 40
3.2000000000000002
 41
1
 50
0
  1
※
  0
TEXT
  8
_0-0_図面枠
 62
    4
 10
243.5868145
 20
27.427555499999983
 40
3.2000000000000002
 41
1
 50
0
  1
※
  0
TEXT
  8
_0-0_図面枠
 62
    4
 10
243.5868145
 20
21.427558500000004
 40
3.2000000000000002
 41
1
 50
0
  1
※
  0
LINE
  8
_0-0_図面枠
  6
CONTINUOUS
 62
    4
 10
182.14999999999998
 20
20.199999999999989
 11
40
 21
20.199999999999989
  0
TEXT
  8
_0-0_図面枠
 62
    4
 10
43.586831999999958
 20
21.427555499999983
 40
3.2000000000000002
 41
1
 50
0
  1
※
  0
TEXT
  8
_0-0_図面枠
 62
    4
 10
149.27047700000003
 20
27.400014999999996
 40
3.2000000000000002
 41
1
 50
0
  1
６０００
  0
TEXT
  8
_0-0_図面枠
 62
    4
 10
169.36022149999994
 20
27.450002999999981
 40
3.2000000000000002
 41
1
 50
0
  1
１
  0
TEXT
  8
_0-0_図面枠
 62
    4
 10
177.00512500000002
 20
27.40000950000001
 40
3.2000000000000002
 41
1
 50
0
  1
巻
  0
TEXT
  8
_0-0_図面枠
 62
    4
 10
48.400007500000015
 20
27.40000950000001
 40
3.2000000000000002
 41
1
 50
0
  1
ブチルテープ
  0
TEXT
  8
_0-0_図面枠
 62
    4
 10
169.36022149999994
 20
21.450002999999981
 40
3.2000000000000002
 41
1
 50
0
  1
２
  0
TEXT
  8
_0-0_図面枠
 62
    4
 10
177.00512500000002
 20
21.40000950000001
 40
3.2000000000000002
 41
1
 50
0
  1
本
  0
TEXT
  8
_0-0_図面枠
 62
    4
 10
349.27041950000012
 20
27.40000950000001
 40
3.2000000000000002
 41
1
 50
0
  1
６０００
  0
TEXT
  8
_0-0_図面枠
 62
    4
 10
369.8602370000001
 20
27.450002999999981
 40
3.2000000000000002
 41
1
 50
0
  1
１
  0
TEXT
  8
_0-0_図面枠
 62
    4
 10
377.00510200000008
 20
27.40000950000001
 40
3.2000000000000002
 41
1
 50
0
  1
巻
  0
TEXT
  8
_0-0_図面枠
 62
    4
 10
248.400013
 20
27.40000950000001
 40
3.2000000000000002
 41
1
 50
0
  1
ブチルテープ
  0
TEXT
  8
_0-0_図面枠
 62
    4
 10
369.8602370000001
 20
21.450002999999981
 40
3.2000000000000002
 41
1
 50
0
  1
２
  0
TEXT
  8
_0-0_図面枠
 62
    4
 10
377.00510200000008
 20
21.400006499999989
 40
3.2000000000000002
 41
1
 50
0
  1
本
  0
TEXT
  8
_0-0_図面枠
 62
    4
 10
302.06663366666669
 20
27.40000950000001
 40
3.2000000000000002
 41
1
 50
0
  1
ｔ１．０×ｗ３０
  0
TEXT
  8
_0-0_図面枠
 62
    4
 10
302.06669116666671
 20
21.400009499999982
 40
3.2000000000000002
 41
1
 50
0
  1
１.５×(１×１９)Ｌ＝６００
  0
TEXT
  8
_0-0_図面枠
 62
    4
 10
102.06669116666677
 20
27.40000950000001
 40
3.2000000000000002
 41
1
 50
0
  1
ｔ１．０×ｗ３０
  0
TEXT
  8
_0-0_図面枠
 62
    4
 10
102.06669116666677
 20
21.40000950000001
 40
3.2000000000000002
 41
1
 50
0
  1
１.５×(１×１９)Ｌ＝６００
  0
TEXT
  8
_0-0_図面枠
 62
    4
 10
48.400007500000015
 20
21.40000950000001
 40
3.2000000000000002
 41
1
 50
0
  1
落下防止ワイヤー
  0
TEXT
  8
_0-0_図面枠
 62
    4
 10
248.40000750000002
 20
21.40000950000001
 40
3.2000000000000002
 41
1
 50
0
  1
落下防止ワイヤー
  0
TEXT
  8
_0-0_図面枠
 62
    4
 10
153.85000000000005
 20
21.599999999999994
 40
3.2000000000000002
 41
1
 50
0
  1
―
  0
TEXT
  8
_0-0_図面枠
 62
    4
 10
353.85000000000002
 20
21.599999999999994
 40
3.2000000000000002
 41
1
 50
0
  1
―
  0
TEXT
  8
_0-0_図面枠
 62
    4
 10
369.36022149999991
 20
33.450002999999981
 40
3.2000000000000002
 41
1
 50
0
  1
１
  0
TEXT
  8
_0-0_図面枠
 62
    4
 10
377.00512500000002
 20
33.400003999999967
 40
3.2000000000000002
 41
1
 50
0
  1
個
  0
TEXT
  8
_0-0_図面枠
 62
    4
 10
353.85000000000002
 20
33.599999999999994
 40
3.2000000000000002
 41
1
 50
0
  1
―
  0
TEXT
  8
_0-0_図面枠
 62
    4
 10
169.36022149999991
 20
33.450002999999995
 40
3.2000000000000002
 41
1
 50
0
  1
１
  0
TEXT
  8
_0-0_図面枠
 62
    4
 10
177.00512500000002
 20
33.400003999999981
 40
3.2000000000000002
 41
1
 50
0
  1
個
  0
TEXT
  8
_0-0_図面枠
 62
    4
 10
153.85000000000002
 20
33.600000000000009
 40
3.2000000000000002
 41
1
 50
0
  1
―
  0
LINE
  8
_0-0_図面枠
  6
CONTINUOUS
 62
    4
 10
182.14999999999998
 20
38.199999999999989
 11
40
 21
38.199999999999989
  0
LINE
  8
_0-0_図面枠
  6
CONTINUOUS
 62
    4
 10
382.15000000000009
 20
38.199999999999989
 11
240
 21
38.199999999999989
  0
LINE
  8
_0-0_図面枠
  6
CONTINUOUS
 62
    4
 10
40
 20
20.199999999999989
 11
40
 21
121.00000000000001
  0
LINE
  8
_0-0_図面枠
  6
CONTINUOUS
 62
    4
 10
47.200000000000045
 20
20.199999999999989
 11
47.200000000000045
 21
121.00000000000001
  0
LINE
  8
_0-0_図面枠
  6
CONTINUOUS
 62
    4
 10
162.95000000000002
 20
20.199999999999989
 11
162.95000000000002
 21
121
  0
LINE
  8
_0-0_図面枠
  6
CONTINUOUS
 62
    4
 10
147.95000000000005
 20
20.199999999999989
 11
147.95000000000005
 21
121
  0
LINE
  8
_0-0_図面枠
  6
CONTINUOUS
 62
    4
 10
174.95000000000005
 20
20.199999999999989
 11
174.95000000000005
 21
121
  0
LINE
  8
_0-0_図面枠
  6
CONTINUOUS
 62
    4
 10
146.95000000000005
 20
20.199999999999989
 11
146.95000000000005
 21
121
  0
LINE
  8
_0-0_図面枠
  6
CONTINUOUS
 62
    4
 10
240
 20
20.199999999999989
 11
240
 21
121
  0
LINE
  8
_0-0_図面枠
  6
CONTINUOUS
 62
    4
 10
247.20000000000005
 20
20.199999999999989
 11
247.20000000000005
 21
121
  0
LINE
  8
_0-0_図面枠
  6
CONTINUOUS
 62
    4
 10
346.95000000000005
 20
20.199999999999989
 11
346.95000000000005
 21
120.99999999999999
  0
LINE
  8
_0-0_図面枠
  6
CONTINUOUS
 62
    4
 10
382.15000000000009
 20
20.199999999999989
 11
382.15000000000009
 21
120.99999999999999
  0
LINE
  8
_0-0_図面枠
  6
CONTINUOUS
 62
    4
 10
374.95000000000005
 20
20.199999999999989
 11
374.95000000000005
 21
120.99999999999999
  0
LINE
  8
_0-0_図面枠
  6
CONTINUOUS
 62
    4
 10
362.95000000000005
 20
20.199999999999989
 11
362.95000000000005
 21
120.99999999999999
  0
LINE
  8
_0-0_図面枠
  6
CONTINUOUS
 62
    4
 10
347.95000000000005
 20
20.199999999999989
 11
347.95000000000005
 21
120.99999999999999
  0
LINE
  8
_0-0_図面枠
  6
CONTINUOUS
 62
    4
 10
182.14999999999998
 20
20.199999999999989
 11
182.14999999999998
 21
121
  0
LINE
  8
_0-0_図面枠
  6
CONTINUOUS
 62
    4
 10
300.86666666666667
 20
20.199999999999989
 11
300.86666666666667
 21
120.99999999999999
  0
LINE
  8
_0-0_図面枠
  6
CONTINUOUS
 62
    4
 10
100.86666666666673
 20
20.199999999999989
 11
100.86666666666673
 21
121
  0
TEXT
  8
_0-0_図面枠
 62
    4
 10
153.85000000000002
 20
39.599999999999994
 40
3.2000000000000002
 41
1
 50
0
  1
―
  0
TEXT
  8
_0-0_図面枠
 62
    4
 10
122.30833333333337
 20
39.599999999999994
 40
3.2000000000000002
 41
1
 50
0
  1
―
  0
TEXT
  8
_0-0_図面枠
 62
    4
 10
40.497050499999972
 20
39.427555499999983
 40
3.2000000000000002
 41
1
 50
0
  1
１２
  0
TEXT
  8
_0-0_図面枠
 62
    4
 10
48.400007499999987
 20
39.400003999999967
 40
3.2000000000000002
 41
1
 50
0
  1
ＳＳＧクリップ
  0
TEXT
  8
_0-0_図面枠
 62
    4
 10
353.85000000000002
 20
39.599999999999994
 40
3.2000000000000002
 41
1
 50
0
  1
―
  0
TEXT
  8
_0-0_図面枠
 62
    4
 10
369.36022149999991
 20
39.450002999999924
 40
3.2000000000000002
 41
1
 50
0
  1
６
  0
TEXT
  8
_0-0_図面枠
 62
    4
 10
322.30833333333334
 20
39.599999999999994
 40
3.2000000000000002
 41
1
 50
0
  1
―
  0
TEXT
  8
_0-0_図面枠
 62
    4
 10
240.49705049999997
 20
39.427555499999983
 40
3.2000000000000002
 41
1
 50
0
  1
１２
  0
TEXT
  8
_0-0_図面枠
 62
    4
 10
248.40000749999999
 20
39.400003999999967
 40
3.2000000000000002
 41
1
 50
0
  1
ＳＳＧクリップ
  0
CIRCLE
  8
_1-f_寸法
  6
CONTINUOUS
 62
    4
 10
90.000000257399734
 20
218.33333333333331
 40
1.6666666666666665
  0
LINE
  8
_1-f_寸法
  6
CONTINUOUS
 62
    4
 10
87.188621104116748
 20
220.20000000000005
 11
88.611522989748323
 21
219.25523823894619
  0
TEXT
  8
_1-f_寸法
 62
    4
 10
88.750000257399705
 20
217.08333333333331
 40
2.5
 41
1
 50
0
  1
12
  0
CIRCLE
  8
_1-f_寸法
  6
CONTINUOUS
 62
    4
 10
290.00000000000068
 20
218.33332933004175
 40
1.6666666666666665
  0
TEXT
  8
_1-f_寸法
 62
    4
 10
288.75000000000068
 20
217.08332933004175
 40
2.5
 41
1
 50
0
  1
12
  0
LINE
  8
_1-f_寸法
  6
CONTINUOUS
 62
    4
 10
288.87529911058135
 20
219.56329912118181
 11
286.61666666666741
 21
222.03333333333336
  0
INSERT
  2
-014-_14_
  8
_1-4_フレ__ム
 10
210
 20
148.5
 41
1
 42
1
 50
0
  0
INSERT
  2
-015-_15_
  8
_1-4_フレ__ム
 10
210
 20
148.5
 41
1
 42
1
 50
0
  0
INSERT
  2
-016-_16_
  8
_1-8_小物
 10
210
 20
148.5
 41
1
 42
1
 50
0
  0
INSERT
  2
-017-_17_
  8
_1-8_小物
 10
210
 20
148.5
 41
1
 42
1
 50
0
  0
TEXT
  8
_0-f_
 62
    4
 10
20
 20
280
 40
3.2000000000000002
 41
1
 50
0
  1
（ステンレス１５０タイプ）
  0
TEXT
  8
_0-f_
 62
    4
 10
220
 20
280
 40
3.2000000000000002
 41
1
 50
0
  1
（ステンレス１５０タイプ）
  0
TEXT
  8
_0-f_
 62
    4
 10
30
 20
270
 40
3.2000000000000002
 41
1
 50
0
  1
◇外壁＋外壁（１５０ＳＳＧ－Ｓ）　Ｓ＝１／３
  0
TEXT
  8
_0-0_図面枠
 62
    4
 10
48.400007500000015
 20
105.40000399999997
 40
3.2000000000000002
 41
1
 50
0
  1
ＳＳＧキャップ(Ｃ)Ｓ
  0
TEXT
  8
_0-0_図面枠
 62
    4
 10
248.4000075000001
 20
105.40000399999997
 40
3.2000000000000002
 41
1
 50
0
  1
ＳＣＧキャップ(Ｃ)Ｓ
  0
INSERT
  2
-018-_18_
  8
_1-7_カバ__
 10
210
 20
148.5
 41
1
 42
1
 50
0
  0
LINE
  8
_1-f_寸法
  6
CONTINUOUS
 62
    4
 10
159.99999999999991
 20
228.00000000000006
 11
166.59999999999988
 21
228.00000000000006
  0
LINE
  8
_1-f_寸法
  6
CONTINUOUS
 62
    4
 10
159.99999999999991
 20
220
 11
166.59999999999988
 21
220
  0
POINT
  8
_1-f_寸法
 62
    4
 10
164.99999999999989
 20
220
  0
POINT
  8
_1-f_寸法
 62
    4
 10
164.99999999999989
 20
228.00000000000006
  0
LINE
  8
_1-f_寸法
  6
CONTINUOUS
 62
    4
 10
164.99999999999989
 20
220
 11
164.99999999999989
 21
228.00000000000006
  0
TEXT
  8
_1-f_寸法
 62
    4
 10
164.99999999999989
 20
222.40000000000001
 40
3.2000000000000002
 41
1
 50
90
  1
24
  0
LINE
  8
_1-f_寸法
  6
CONTINUOUS
 62
    4
 10
293.00000000731598
 20
246.66666666666666
 11
293.00000000731598
 21
253.26666666666665
  0
LINE
  8
_1-f_寸法
  6
CONTINUOUS
 62
    4
 10
285
 20
246.66666666666666
 11
285
 21
253.26666666666665
  0
POINT
  8
_1-f_寸法
 62
    4
 10
285
 20
251.66666666666666
  0
POINT
  8
_1-f_寸法
 62
    4
 10
293.00000000731598
 20
251.66666666666666
  0
LINE
  8
_1-f_寸法
  6
CONTINUOUS
 62
    4
 10
285
 20
251.66666666666666
 11
293.00000000731598
 21
251.66666666666666
  0
TEXT
  8
_1-f_寸法
 62
    4
 10
287.40000000365796
 20
251.66666666666666
 40
3.2000000000000002
 41
1
 50
0
  1
24
  0
LINE
  8
_1-f_寸法
  6
CONTINUOUS
 62
    4
 10
354.99999999999983
 20
246.66666666666666
 11
354.99999999999983
 21
253.26666666666665
  0
POINT
  8
_1-f_寸法
 62
    4
 10
354.99999999999983
 20
251.66666666666666
  0
LINE
  8
_1-f_寸法
  6
CONTINUOUS
 62
    4
 10
293.00000000731598
 20
251.66666666666666
 11
354.99999999999983
 21
251.66666666666666
  0
TEXT
  8
_1-f_寸法
 62
    4
 10
321.6000000036579
 20
251.66666666666666
 40
3.2000000000000002
 41
1
 50
0
  1
186
  0
LINE
  8
_1-f_寸法
  6
CONTINUOUS
 62
    4
 10
359.99999999999989
 20
228
 11
366.59999999999991
 21
228
  0
LINE
  8
_1-f_寸法
  6
CONTINUOUS
 62
    4
 10
359.99999999999989
 20
243.3333206274815
 11
366.59999999999991
 21
243.3333206274815
  0
POINT
  8
_1-f_寸法
 62
    4
 10
364.99999999999989
 20
243.3333206274815
  0
POINT
  8
_1-f_寸法
 62
    4
 10
364.99999999999989
 20
228
  0
LINE
  8
_1-f_寸法
  6
CONTINUOUS
 62
    4
 10
364.99999999999989
 20
243.3333206274815
 11
364.99999999999989
 21
228
  0
TEXT
  8
_1-f_寸法
 62
    4
 10
364.99999999999989
 20
234.06666031374075
 40
3.2000000000000002
 41
1
 50
90
  1
46
  0
LINE
  8
_1-f_寸法
  6
CONTINUOUS
 62
    4
 10
359.99999999999989
 20
219.99999999999994
 11
366.59999999999991
 21
219.99999999999994
  0
LINE
  8
_1-f_寸法
  6
CONTINUOUS
 62
    4
 10
359.99999999999989
 20
228
 11
366.59999999999991
 21
228
  0
POINT
  8
_1-f_寸法
 62
    4
 10
364.99999999999989
 20
228
  0
POINT
  8
_1-f_寸法
 62
    4
 10
364.99999999999989
 20
219.99999999999994
  0
LINE
  8
_1-f_寸法
  6
CONTINUOUS
 62
    4
 10
364.99999999999989
 20
228
 11
364.99999999999989
 21
219.99999999999994
  0
TEXT
  8
_1-f_寸法
 62
    4
 10
364.99999999999989
 20
222.40000000000001
 40
3.2000000000000002
 41
1
 50
90
  1
24
  0
LINE
  8
_1-6_ばね
  6
CENTER2
 62
    4
 10
72.316666746131887
 20
220.33333334065006
 11
72.316666746131887
 21
227.00000000731671
  0
LINE
  8
_1-6_ばね
  6
CENTER2
 62
    4
 10
75.650000079465201
 20
223.6666666739834
 11
68.983333412798544
 21
223.6666666739834
  0
CIRCLE
  8
_1-6_ばね
  6
CONTINUOUS
 62
    4
 10
72.316666746131887
 20
223.66666667398331
 40
1.466666673983362
  0
LINE
  8
_1-6_ばね
  6
CONTINUOUS
 62
    4
 10
73.966582574074209
 20
222.01675084604102
 11
78.429324286361521
 21
226.47949255832833
  0
ARC
  8
_1-6_ばね
  6
CONTINUOUS
 62
    4
 10
79.042150163389863
 20
225.86666668130002
 40
0.8666666666666667
 50
90
 51
135.00000000000134
  0
LINE
  8
_1-6_ばね
  6
CENTER2
 62
    4
 10
73.660169635560067
 20
222.32316378455519
 11
78.122911347847378
 21
226.78590549684253
  0
LINE
  8
_1-6_ばね
  6
CONTINUOUS
 62
    4
 10
73.353756697045867
 20
222.62957672306936
 11
77.816498409333178
 21
227.09231843535667
  0
ARC
  8
_1-6_ばね
  6
CONTINUOUS
 62
    4
 10
79.042150163389863
 20
225.86666668129999
 40
1.7333333333333334
 50
90
 51
135
  0
ARC
  8
_1-6_ばね
  6
CENTER2
 62
    4
 10
79.04215016338992
 20
225.86666668130002
 40
1.2999999999999998
 50
90
 51
135
  0
LINE
  8
_1-6_ばね
  6
CONTINUOUS
 62
    4
 10
88.966666746131864
 20
223.60000001463334
 11
89.800000079465192
 21
223.60000001463334
  0
LINE
  8
_1-6_ばね
  6
CONTINUOUS
 62
    4
 10
88.950000079465212
 20
223.60000001463334
 11
88.950000079465212
 21
225.86666668130002
  0
LINE
  8
_1-6_ばね
  6
CENTER2
 62
    4
 10
89.383333412798521
 20
223.60000001463334
 11
89.383333412798521
 21
225.86666668130002
  0
LINE
  8
_1-6_ばね
  6
CONTINUOUS
 62
    4
 10
89.816666746131887
 20
223.60000001463334
 11
89.816666746131887
 21
225.86666668129999
  0
ARC
  8
_1-6_ばね
  6
CONTINUOUS
 62
    4
 10
88.083333412798538
 20
225.86666668129999
 40
1.7333333333333334
 50
0
 51
90
  0
ARC
  8
_1-6_ばね
  6
CONTINUOUS
 62
    4
 10
88.083333412798538
 20
225.86666668130002
 40
0.8666666666666667
 50
0
 51
90
  0
ARC
  8
_1-6_ばね
  6
CENTER2
 62
    4
 10
88.083333412798538
 20
225.86666668130002
 40
1.2999999999999998
 50
0
 51
90
  0
LINE
  8
_1-6_ばね
  6
CONTINUOUS
 62
    4
 10
79.042150163389863
 20
227.60000001463334
 11
88.083333412798538
 21
227.60000001463334
  0
LINE
  8
_1-6_ばね
  6
CENTER2
 62
    4
 10
79.04215016338992
 20
227.1666666813
 11
88.083333412798538
 21
227.1666666813
  0
LINE
  8
_1-6_ばね
  6
CONTINUOUS
 62
    4
 10
79.042150163389863
 20
226.73333334796669
 11
88.083333412798538
 21
226.73333334796669
  0
ARC
  8
_1-6_ばね
  6
CENTER2
 62
    4
 10
72.316666746131887
 20
223.66666667398331
 40
1.9000000073166954
 50
354.47249681728152
 51
315
  0
ARC
  8
_1-6_ばね
  6
CONTINUOUS
 62
    4
 10
72.316666746131887
 20
223.66666667398331
 40
2.3333333406500287
 50
6.0551963201018557
 51
315
  0
LINE
  8
_1-6_ばね
  6
CENTER2
 62
    4
 10
290.33333332896541
 20
240.83333333333331
 11
290.33333332896541
 21
234.16666666666663
  0
LINE
  8
_1-6_ばね
  6
CENTER2
 62
    4
 10
293.66666666229867
 20
237.49999999999994
 11
286.99999999563198
 21
237.49999999999994
  0
CIRCLE
  8
_1-6_ばね
  6
CONTINUOUS
 62
    4
 10
290.33333332896535
 20
237.49999999999989
 40
1.466666673983362
  0
ARC
  8
_1-6_ばね
  6
CONTINUOUS
 62
    4
 10
292.81666666666393
 20
226.70000005588344
 40
0.8666666666666667
 50
180
 51
270
  0
ARC
  8
_1-6_ばね
  6
CONTINUOUS
 62
    4
 10
292.81666666666359
 20
226.70000005588344
 40
1.7333333333333334
 50
180
 51
270
  0
ARC
  8
_1-6_ばね
  6
CENTER2
 62
    4
 10
292.81666666666393
 20
226.70000005588338
 40
1.2999999999999998
 50
180
 51
270
  0
ARC
  8
_1-6_ばね
  6
CENTER2
 62
    4
 10
290.33333332896535
 20
237.49999999999989
 40
1.9000000073166954
 50
254.47249681728397
 51
214.99999999999986
  0
ARC
  8
_1-6_ばね
  6
CONTINUOUS
 62
    4
 10
290.33333332896535
 20
237.49999999999989
 40
2.3333333406500287
 50
266.05519632010254
 51
214.99999999999511
  0
ARC
  8
_1-6_ばね
  6
CONTINUOUS
 62
    4
 10
301.53767306541414
 20
225.86666669993349
 40
0.8666666666666667
 50
90
 51
120.49335808176116
  0
ARC
  8
_1-6_ばね
  6
CONTINUOUS
 62
    4
 10
297.82899360561345
 20
226.70000005588344
 40
0.8666666666666667
 50
270
 51
300.49335808176113
  0
LINE
  8
_1-6_ばね
  6
CONTINUOUS
 62
    4
 10
301.09789305234443
 20
226.6134629581027
 11
298.70855363175286
 21
225.20640753954501
  0
ARC
  8
_1-6_ばね
  6
CONTINUOUS
 62
    4
 10
297.82899360561345
 20
226.70000005588344
 40
1.7333333333333334
 50
270
 51
300.49335808175533
  0
ARC
  8
_1-6_ばね
  6
CONTINUOUS
 62
    4
 10
301.53767306541403
 20
225.8666666999334
 40
1.7333333333333334
 50
90
 51
120.49335808175486
  0
ARC
  8
_1-6_ばね
  6
CENTER2
 62
    4
 10
297.82899360561368
 20
226.70000005588338
 40
1.2999999999999998
 50
270
 51
300.49335808175101
  0
ARC
  8
_1-6_ばね
  6
CENTER2
 62
    4
 10
301.53767306541403
 20
225.8666666999334
 40
1.2999999999999998
 50
90
 51
120.49335808175232
  0
LINE
  8
_1-6_ばね
  6
CENTER2
 62
    4
 10
300.87800304580952
 20
226.98686108718721
 11
298.48866362521807
 21
225.57980566862955
  0
LINE
  8
_1-6_ばね
  6
CONTINUOUS
 62
    4
 10
300.65811303927461
 20
227.36025921627186
 11
298.26877361868327
 21
225.9532037977142
  0
LINE
  8
_1-6_ばね
  6
CONTINUOUS
 62
    4
 10
306.75000000218057
 20
225.06666669993353
 11
306.75000000218057
 21
225.86666669993349
  0
LINE
  8
_1-6_ばね
  6
CONTINUOUS
 62
    4
 10
307.61666666884736
 20
225.06666669993353
 11
307.61666666884736
 21
225.8666666999334
  0
LINE
  8
_1-6_ばね
  6
CENTER2
 62
    4
 10
307.18333333551396
 20
225.06666669993353
 11
307.18333333551396
 21
225.8666666999334
  0
LINE
  8
_1-6_ばね
  6
CONTINUOUS
 62
    4
 10
310.35464601832479
 20
223.78992596140182
 11
312.39743119997541
 21
225.50402625389927
  0
LINE
  8
_1-6_ばね
  6
CONTINUOUS
 62
    4
 10
312.39743119997541
 20
225.50402625389927
 11
312.95451379503714
 21
224.84012106986282
  0
LINE
  8
_1-6_ばね
  6
CONTINUOUS
 62
    4
 10
310.9117286133864
 20
223.1260207773654
 11
312.95451379503714
 21
224.84012106986282
  0
LINE
  8
_1-6_ばね
  6
CENTER2
 62
    4
 10
310.63318731585565
 20
223.45797336938361
 11
312.67597249750628
 21
225.17207366188103
  0
ARC
  8
_1-6_ばね
  6
CONTINUOUS
 62
    4
 10
309.28333333551399
 20
225.06666669993345
 40
1.6666666666666665
 50
179.99999999999707
 51
309.99999999999829
  0
ARC
  8
_1-6_ばね
  6
CENTER2
 62
    4
 10
309.28333333551399
 20
225.06666669993345
 40
2.0999999999999996
 50
179.9999999999977
 51
309.99999999999733
  0
ARC
  8
_1-6_ばね
  6
CONTINUOUS
 62
    4
 10
309.28333333551399
 20
225.06666669993345
 40
2.5333333333333328
 50
179.99999999999807
 51
309.99999999999744
  0
ARC
  8
_1-6_ばね
  6
CONTINUOUS
 62
    4
 10
305.8833333355139
 20
225.86666669993349
 40
0.8666666666666667
 50
0
 51
90
  0
ARC
  8
_1-6_ばね
  6
CONTINUOUS
 62
    4
 10
305.88333333551401
 20
225.8666666999334
 40
1.7333333333333334
 50
0
 51
90
  0
ARC
  8
_1-6_ばね
  6
CENTER2
 62
    4
 10
305.8833333355139
 20
225.8666666999334
 40
1.2999999999999998
 50
0
 51
90
  0
LINE
  8
_1-6_ばね
  6
CONTINUOUS
 62
    4
 10
305.8833333355139
 20
226.73333336660011
 11
301.53767306541414
 21
226.73333336660011
  0
LINE
  8
_1-6_ばね
  6
CENTER2
 62
    4
 10
305.8833333355139
 20
227.16666669993336
 11
301.53767306541403
 21
227.16666669993336
  0
LINE
  8
_1-6_ばね
  6
CONTINUOUS
 62
    4
 10
305.88333333551401
 20
227.60000003326675
 11
301.53767306541403
 21
227.60000003326675
  0
LINE
  8
_1-6_ばね
  6
CONTINUOUS
 62
    4
 10
297.82899360561345
 20
225.83333338921673
 11
292.81666666666393
 21
225.83333338921673
  0
LINE
  8
_1-6_ばね
  6
CENTER2
 62
    4
 10
297.82899360561368
 20
225.40000005588334
 11
292.81666666666393
 21
225.40000005588334
  0
LINE
  8
_1-6_ばね
  6
CONTINUOUS
 62
    4
 10
297.82899360561345
 20
224.96666672255009
 11
292.81666666666359
 21
224.96666672255009
  0
LINE
  8
_1-6_ばね
  6
CONTINUOUS
 62
    4
 10
288.42197855296405
 20
236.1616549776509
 11
290.92659843838084
 21
232.5846870806464
  0
LINE
  8
_1-6_ばね
  6
CONTINUOUS
 62
    4
 10
291.08333333333036
 20
232.08758750247546
 11
291.08333333333036
 21
226.70000005588338
  0
LINE
  8
_1-6_ばね
  6
CONTINUOUS
 62
    4
 10
289.13191032468131
 20
236.6587545558217
 11
291.63653021009821
 21
233.08178665881695
  0
LINE
  8
_1-6_ばね
  6
CONTINUOUS
 62
    4
 10
291.94999999999732
 20
232.08758750247515
 11
291.94999999999732
 21
226.70000005588338
  0
LINE
  8
_1-6_ばね
  6
CENTER2
 62
    4
 10
288.77694443882268
 20
236.41020476673637
 11
291.28156432423958
 21
232.83323686973165
  0
LINE
  8
_1-6_ばね
  6
CENTER2
 62
    4
 10
291.51666666666392
 20
232.08758750247523
 11
291.51666666666392
 21
226.70000005588338
  0
ARC
  8
_1-6_ばね
  6
CONTINUOUS
 62
    4
 10
290.21666666666374
 20
232.08758750247546
 40
0.8666666666666667
 50
0
 51
35.00000000000334
  0
ARC
  8
_1-6_ばね
  6
CONTINUOUS
 62
    4
 10
290.21666666666397
 20
232.08758750247515
 40
1.7333333333333334
 50
0
 51
34.999999999999957
  0
ARC
  8
_1-6_ばね
  6
CENTER2
 62
    4
 10
290.21666666666391
 20
232.08758750247523
 40
1.2999999999999998
 50
0
 51
35.000000000002622
  0
ARC
  8
_1-6_ばね
  6
CONTINUOUS
 62
    4
 10
84.081185033977647
 20
222.87545237281645
 40
1.7333333333333334
 50
28.235762146984005
 51
83.235762146982978
  0
ARC
  8
_1-6_ばね
  6
CONTINUOUS
 62
    4
 10
84.081185033977533
 20
222.87545237281657
 40
0.8666666666666667
 50
28.235762146986108
 51
83.235762146983106
  0
ARC
  8
_1-6_ばね
  6
CENTER2
 62
    4
 10
84.08118503397759
 20
222.87545237281648
 40
1.2999999999999998
 50
28.235762146983561
 51
83.23576214698177
  0
LINE
  8
_1-6_ばね
  6
CONTINUOUS
 62
    4
 10
86.865103787476897
 20
221.3550103265182
 11
85.608266138824462
 21
223.6954936788884
  0
LINE
  8
_1-6_ばね
  6
CENTER2
 62
    4
 10
86.483333511265187
 20
221.15000000000023
 11
85.226495862612779
 21
223.49048335237049
  0
LINE
  8
_1-6_ばね
  6
CONTINUOUS
 62
    4
 10
86.101563235053504
 20
220.9449896734823
 11
84.844725586400969
 21
223.28547302585255
  0
INSERT
  2
-019-_19_
  8
_1-5_ア__ム
 10
210
 20
148.5
 41
1
 42
1
 50
0
  0
INSERT
  2
-020-_20_
  8
_1-5_ア__ム
 10
210
 20
148.5
 41
1
 42
1
 50
0
  0
ARC
  8
_1-6_ばね
  6
CONTINUOUS
 62
    4
 10
86.483333511265187
 20
221.15000000000023
 40
0.4333333333333333
 50
208.23576214697934
 51
28.23576214698026
  0
LINE
  8
_1-6_ばね
  6
CONTINUOUS
 62
    4
 10
84.285344259844464
 20
224.59672035164425
 11
77.367121050965949
 21
225.41728932293273
  0
LINE
  8
_1-6_ばね
  6
CONTINUOUS
 62
    4
 10
76.271429085926684
 20
225.54724911195018
 11
72.591492607132125
 21
225.9837255885889
  0
LINE
  8
_1-6_ばね
  6
CONTINUOUS
 62
    4
 10
75.491227051510975
 20
224.76704707753447
 11
74.291561583100986
 21
224.90933914149099
  0
LINE
  8
_1-6_ばね
  6
CONTINUOUS
 62
    4
 10
84.183264646910956
 20
223.73608636223051
 11
76.586919016550212
 21
224.63708728851702
  0
LINE
  8
_1-6_ばね
  6
CENTER2
 62
    4
 10
84.234304453377746
 20
224.16640335693734
 11
76.977020033758123
 21
225.02718830572496
  0
LINE
  8
_1-6_ばね
  6
CENTER2
 62
    4
 10
75.881328068718886
 20
225.15714809474235
 11
73.885487382711176
 21
225.39387433052951
  0
LINE
  8
_1-6_ばね
  6
CONTINUOUS
 62
    4
 10
292.49037483802653
 20
236.61027172306584
 11
291.25796362817692
 21
233.62243576820708
  0
LINE
  8
_1-6_ばね
  6
CONTINUOUS
 62
    4
 10
290.86575718394943
 20
232.67157739689029
 11
286.88392675518804
 21
223.01809808242081
  0
LINE
  8
_1-6_ばね
  6
CONTINUOUS
 62
    4
 10
286.08273991147763
 20
223.3485685842457
 11
290.27579330849079
 21
233.51413312967634
  0
LINE
  8
_1-6_ばね
  6
CONTINUOUS
 62
    4
 10
290.66799975271829
 20
234.46499150099308
 11
290.99720017090016
 21
235.26309917636735
  0
LINE
  8
_1-6_ばね
  6
CENTER2
 62
    4
 10
291.57332593694588
 20
235.52342143825683
 11
290.96298169044763
 21
234.04371363460001
  0
LINE
  8
_1-6_ばね
  6
CENTER2
 62
    4
 10
290.57077524622014
 20
233.09285526328327
 11
286.48333333333284
 21
223.18333333333322
  0
ARC
  8
_1-6_ばね
  6
CONTINUOUS
 62
    4
 10
286.48333333333284
 20
223.18333333333322
 40
0.4333333333333333
 50
157.58501805951943
 51
337.58501805951943
  0
INSERT
  2
-021-_21_
  8
_1-8_小物
 10
210
 20
148.5
 41
1
 42
1
 50
0
  0
INSERT
  2
-022-_22_
  8
_1-8_小物
 10
210
 20
148.5
 41
1
 42
1
 50
0
  0
INSERT
  2
-023-_23_
  8
_1-8_小物
 10
210
 20
148.5
 41
1
 42
1
 50
0
  0
INSERT
  2
-024-_24_
  8
_1-8_小物
 10
210
 20
148.5
 41
1
 42
1
 50
0
  0
INSERT
  2
-025-_25_
  8
_1-8_小物
 10
210
 20
148.5
 41
1
 42
1
 50
0
  0
INSERT
  2
-026-_26_
  8
_1-8_小物
 10
210
 20
148.5
 41
1
 42
1
 50
0
  0
INSERT
  2
-027-_27_
  8
_1-8_小物
 10
210
 20
148.5
 41
1
 42
1
 50
0
  0
INSERT
  2
-028-_28_
  8
_1-8_小物
 10
210
 20
148.5
 41
1
 42
1
 50
0
  0
ARC
  8
_1-f_寸法
  6
CONTINUOUS
 62
    4
 10
289.30833331657038
 20
245.30199171972777
 40
6.7166666375130486
 50
230.10077861169503
 51
254.38150176464103
  0
INSERT
  2
-029-_29_
  8
_1-7_カバ__
 10
210
 20
148.5
 41
1
 42
1
 50
0
  0
TEXT
  8
_0-0_図面枠
 62
    4
 10
366.27045750000013
 20
69.450008499999967
 40
3.2000000000000002
 41
1
 50
0
  1
１２
  0
TEXT
  8
_0-0_図面枠
 62
    4
 10
166.27045750000013
 20
69.450008499999967
 40
3.2000000000000002
 41
1
 50
0
  1
１２
  0
TEXT
  8
_0-0_図面枠
 62
    4
 10
169.36022149999991
 20
39.450002999999924
 40
3.2000000000000002
 41
1
 50
0
  1
６
  0
TEXT
  8
_0-0_図面枠
 62
    4
 10
177.00512500000002
 20
39.399992499999996
 40
3.2000000000000002
 41
1
 50
0
  1
個
  0
TEXT
  8
_0-0_図面枠
 62
    4
 10
377.00512500000002
 20
39.399992499999996
 40
3.2000000000000002
 41
1
 50
0
  1
個
  0
TEXT
  8
_0-0_図面枠
 62
    4
 10
48.400007499999987
 20
51.400003999999939
 40
3.2000000000000002
 41
1
 50
0
  1
アンカープラグ
  0
TEXT
  8
_0-0_図面枠
 62
    4
 10
248.40000749999999
 20
51.400003999999953
 40
3.2000000000000002
 41
1
 50
0
  1
アンカープラグ
  0
LINE
  8
_0-0_図面枠
  6
CONTINUOUS
 62
    2
 10
165
 20
246.99999999999994
 11
210.00000000000003
 21
246.99999999999994
  0
LINE
  8
_0-0_図面枠
  6
CONTINUOUS
 62
    2
 10
165
 20
246.99999999999994
 11
165
 21
287
  0
INSERT
  2
-030-_30_
  8
_0-0_図面枠
 10
210
 20
148.5
 41
1
 42
1
 50
0
  0
LINE
  8
_0-0_図面枠
  6
CONTINUOUS
 62
    2
 10
178.99460475445102
 20
263.11505807960714
 11
181.15966826391207
 21
261.86505807960714
  0
LINE
  8
_0-0_図面枠
  6
CONTINUOUS
 62
    2
 10
181.15966826391207
 20
261.86505807960714
 11
195.88210012824757
 21
270.36505807960714
  0
LINE
  8
_0-0_図面枠
  6
CONTINUOUS
 62
    2
 10
195.88210012824757
 20
270.36505807960714
 11
193.71703661878647
 21
271.61505807960714
  0
LINE
  8
_0-0_図面枠
  6
CONTINUOUS
 62
    2
 10
181.15966826391207
 20
261.86505807960714
 11
181.15966826391207
 21
251.86505807960714
  0
LINE
  8
_0-0_図面枠
  6
CONTINUOUS
 62
    2
 10
178.99460475445102
 20
263.11505807960714
 11
178.99460475445102
 21
253.11505807960714
  0
LINE
  8
_0-0_図面枠
  6
CONTINUOUS
 62
    2
 10
195.88210012824757
 20
270.36505807960714
 11
195.88210012824757
 21
270.18409224854935
  0
LINE
  8
_0-0_図面枠
  6
CONTINUOUS
 62
    2
 10
195.88210012824757
 20
268.01364867294285
 11
195.88210012824757
 21
260.36505807960714
  0
LINE
  8
_0-0_図面枠
  6
CONTINUOUS
 62
    2
 10
193.71703661878647
 20
271.61505807960714
 11
193.71703661878647
 21
271.52033947808678
  0
LINE
  8
_0-0_図面枠
  6
CONTINUOUS
 62
    2
 10
193.71703661878647
 20
270.73757885370628
 11
193.71703661878647
 21
269.11505807960714
  0
LINE
  8
_0-0_図面枠
  6
CONTINUOUS
 62
    3
 10
184.19075717715765
 20
266.11505807960714
 11
184.19075717715765
 21
263.61505807960714
  0
LINE
  8
_0-0_図面枠
  6
CONTINUOUS
 62
    3
 10
188.52088419607986
 20
268.61505807960714
 11
188.52088419607986
 21
266.11505807960714
  0
LINE
  8
_0-0_図面枠
  6
CONTINUOUS
 62
    3
 10
184.19075717715765
 20
266.11505807960714
 11
178.99460475445102
 21
263.11505807960714
  0
LINE
  8
_0-0_図面枠
  6
CONTINUOUS
 62
    3
 10
188.52088419607986
 20
268.61505807960714
 11
184.19075717715771
 21
271.11505807960714
  0
LINE
  8
_0-0_図面枠
  6
CONTINUOUS
 62
    3
 10
184.19075717715765
 20
266.11505807960714
 11
179.86063015823549
 21
268.61505807960714
  0
LINE
  8
_0-0_図面枠
  6
CONTINUOUS
 62
    3
 10
178.99460475445102
 20
263.11505807960714
 11
175.53050313931328
 21
261.11505807960714
  0
LINE
  8
_0-0_図面枠
  6
CONTINUOUS
 62
    3
 10
193.71703661878647
 20
271.61505807960714
 11
197.18113823392426
 21
273.61505807960714
  0
LINE
  8
_0-0_図面枠
  6
CONTINUOUS
 62
    3
 10
193.71703661878647
 20
271.61505807960714
 11
193.68236424150385
 21
271.59503997324953
  0
LINE
  8
_0-0_図面枠
  6
CONTINUOUS
 62
    3
 10
192.51835025799224
 20
270.92299618652862
 11
188.52088419607986
 21
268.61505807960714
  0
TEXT
  8
_0-0_図面枠
 62
    4
 10
173.22269212770595
 20
280.88494192039275
 40
2.5
 41
1
 50
0
  1
-75
  0
TEXT
  8
_0-0_図面枠
 62
    4
 10
195.7385458179771
 20
280.88494192039269
 40
2.5
 41
1
 50
0
  1
+75
  0
TEXT
  8
_0-0_図面枠
 62
    4
 10
195.73854581797704
 20
267.88540773128045
 40
2.5
 41
1
 50
0
  1
+75
  0
TEXT
  8
_0-0_図面枠
 62
    4
 10
173.22228872183661
 20
267.88610650082211
 40
2.5
 41
1
 50
0
  1
-75
  0
LINE
  8
_0-0_図面枠
  6
CONTINUOUS
 62
    2
 10
365.00000000000006
 20
247
 11
410.00000000000006
 21
247
  0
LINE
  8
_0-0_図面枠
  6
CONTINUOUS
 62
    2
 10
365.00000000000006
 20
247.00000000000006
 11
365.00000000000006
 21
287.00000000000006
  0
INSERT
  2
-031-_31_
  8
_0-0_図面枠
 10
210
 20
148.5
 41
1
 42
1
 50
0
  0
LINE
  8
_0-0_図面枠
  6
CONTINUOUS
 62
    4
 10
392.70254983187715
 20
272.37647457958172
 11
392.66787745459447
 21
272.35645647322411
  0
LINE
  8
_0-0_図面枠
  6
CONTINUOUS
 62
    2
 10
377.98011796754173
 20
263.87647457958172
 11
380.14518147700278
 21
262.62647457958172
  0
LINE
  8
_0-0_図面枠
  6
CONTINUOUS
 62
    2
 10
380.14518147700278
 20
262.62647457958172
 11
380.14518147700278
 21
252.62647457958172
  0
LINE
  8
_0-0_図面枠
  6
CONTINUOUS
 62
    2
 10
377.98011796754173
 20
263.87647457958172
 11
377.98011796754173
 21
253.87647457958172
  0
LINE
  8
_0-0_図面枠
  6
CONTINUOUS
 62
    2
 10
387.50639740917057
 20
266.87647457958167
 11
390.97049902430831
 21
264.87647457958167
  0
LINE
  8
_0-0_図面枠
  6
CONTINUOUS
 62
    2
 10
390.97049902430831
 20
264.87647457958167
 11
393.13556253376942
 21
266.12647457958167
  0
LINE
  8
_0-0_図面枠
  6
CONTINUOUS
 62
    2
 10
380.14518147700278
 20
262.62647457958172
 11
387.50639740917046
 21
266.87647457958172
  0
LINE
  8
_0-0_図面枠
  6
CONTINUOUS
 62
    2
 10
390.97049902430831
 20
264.87647457958167
 11
390.97049902430831
 21
254.87647457958167
  0
LINE
  8
_0-0_図面枠
  6
CONTINUOUS
 62
    2
 10
393.13556253376942
 20
266.12647457958167
 11
393.13556253376942
 21
256.12647457958167
  0
LINE
  8
_0-0_図面枠
  6
CONTINUOUS
 62
    3
 10
377.98011796754173
 20
263.87647457958172
 11
374.51601635240394
 21
261.87647457958172
  0
LINE
  8
_0-0_図面枠
  6
CONTINUOUS
 62
    3
 10
383.17627039024836
 20
266.87647457958172
 11
383.17627039024836
 21
264.37647457958172
  0
LINE
  8
_0-0_図面枠
  6
CONTINUOUS
 62
    3
 10
383.17627039024836
 20
266.87647457958172
 11
377.98011796754173
 21
263.87647457958172
  0
LINE
  8
_0-0_図面枠
  6
CONTINUOUS
 62
    3
 10
396.16665144701494
 20
264.37647457958172
 11
383.17627039024836
 21
271.87647457958172
  0
LINE
  8
_0-0_図面枠
  6
CONTINUOUS
 62
    3
 10
396.16665144701494
 20
264.37647457958172
 11
400.4967784659371
 21
266.87647457958172
  0
LINE
  8
_0-0_図面枠
  6
CONTINUOUS
 62
    3
 10
396.16665144701494
 20
264.37647457958167
 11
396.16665144701494
 21
254.37647457958167
  0
LINE
  8
_0-0_図面枠
  6
CONTINUOUS
 62
    3
 10
383.17627039024836
 20
266.87647457958172
 11
378.84614337132615
 21
269.37647457958172
  0
TEXT
  8
_0-0_図面枠
 62
    4
 10
372.20860876835116
 20
281.64635842036733
 40
2.5
 41
1
 50
0
  1
-75
  0
TEXT
  8
_0-0_図面枠
 62
    4
 10
394.72446245862227
 20
281.64635842036728
 40
2.5
 41
1
 50
0
  1
+75
  0
TEXT
  8
_0-0_図面枠
 62
    4
 10
394.72446245862221
 20
268.64682423125504
 40
2.5
 41
1
 50
0
  1
+75
  0
TEXT
  8
_0-0_図面枠
 62
    4
 10
372.20820536248181
 20
268.6475230007967
 40
2.5
 41
1
 50
0
  1
-75
  0
INSERT
  2
-032-_32_
  8
_1-8_小物
 10
210
 20
148.5
 41
1
 42
1
 50
0
  0
INSERT
  2
-033-_33_
  8
_1-8_小物
 10
210
 20
148.5
 41
1
 42
1
 50
0
  0
INSERT
  2
-034-_34_
  8
_1-8_小物
 10
210
 20
148.5
 41
1
 42
1
 50
0
  0
INSERT
  2
-035-_35_
  8
_1-8_小物
 10
210
 20
148.5
 41
1
 42
1
 50
0
  0
TEXT
  8
_0-0_図面枠
 62
    4
 10
48.400007500000015
 20
45.400003999999967
 40
3.2000000000000002
 41
1
 50
0
  1
ガスケットＧＮ
  0
TEXT
  8
_0-0_図面枠
 62
    4
 10
149.27047700000003
 20
45.40000950000001
 40
3.2000000000000002
 41
1
 50
0
  1
３０１０
  0
LINE
  8
_0-0_図面枠
  6
CONTINUOUS
 62
    4
 10
387.50639740917063
 20
266.87647457958167
 11
387.50639740917063
 21
256.87647457958167
  0
TEXT
  8
_0-0_図面枠
 62
    4
 10
248.4000075000001
 20
45.400003999999967
 40
3.2000000000000002
 41
1
 50
0
  1
ガスケットＧＮ
  0
TEXT
  8
_0-0_図面枠
 62
    4
 10
349.27047700000014
 20
45.40000950000001
 40
3.2000000000000002
 41
1
 50
0
  1
３０１０
  0
TEXT
  8
_0-0_図面枠
 62
    4
 10
47.200000000000045
 20
35.200000000000003
 40
2.5
 41
1
 50
0
  1
 ジョイントプレート
  0
TEXT
  8
_0-0_図面枠
 62
    4
 10
247.20000000000005
 20
35.200000000000003
 40
2.5
 41
1
 50
0
  1
 ジョイントプレート
  0
TEXT
  8
_0-0_図面枠
 62
    4
 10
47.200000000000045
 20
32.200000000000003
 40
2.5
 41
1
 50
0
  1
（１５０ＳＳＧＪＰ-Ｓ）
  0
TEXT
  8
_0-0_図面枠
 62
    4
 10
247.20000000000005
 20
32.200000000000003
 40
2.5
 41
1
 50
0
  1
（１５０ＳＣＧＪＰ-Ｓ）
  0
TEXT
  8
_0-0_図面枠
 62
    4
 10
102.06667966666674
 20
33.400003999999967
 40
3.2000000000000002
 41
1
 50
0
  1
ＳＵＳ　ｔ＝０．８
  0
TEXT
  8
_0-0_図面枠
 62
    4
 10
302.06667966666669
 20
33.400003999999967
 40
3.2000000000000002
 41
1
 50
0
  1
ＳＵＳ　ｔ＝０．８
  0
ENDSEC
  0
EOF
